MUZBANK



A Most Complete Bank Of Music Information

МУЗЫКАЛЬНО-ИНФОРМАЦИОННЫЙ БАНК

Поиск по сайту







    MMuse • Sunburn (аккорды и текст - chords & lyrics)


    425

    Print

    Видео «Sunburn (Muse)»

    Видео клипы к песне подбираются автоматически сайтом youtube. Возможны некоторые несоответствия клипов песне.

    ↑ Спрятать рекламу ↑



    Download



    Intro
    E|---7-----7---------7-----7----------8-----8---------7-----7--------|
    B|-----8-----8---8-----5-----5---5------8-----8---8-----5-----5---5--|
    G|-------9-----9---------5-----5----------9-----9---------5-----5----|
    D|-9---------------7---------------10---------------7----------------|
    A|-------------------------------------------------------------------|
    E|-------------------------------------------------------------------| x2
    
    Verse
    E|---7-----7---------7-----7----------8-----8---------7-----7-------|
    B|-----8-----8---8-----5-----5---5------8-----8---8-----5-----5---5-|
    G|-------9-----9---------5-----5----------9-----9---------5-----5---|
    D|-9---------------7---------------10---------------7---------------|
    A|------------------------------------------------------------------|
    E|------------------------------------------------------------------|
    come waste your millions here secretly
    
    E|---7-----7---------7-----7----------8-----8---------7-----7-------|
    B|-----8-----8---8-----5-----5---5------8-----8---8-----5-----5---5-|
    G|-------9-----9---------5-----5----------9-----9---------5-----5---|
    D|-9---------------7---------------10---------------7---------------|
    A|------------------------------------------------------------------|
    E|------------------------------------------------------------------|
    she sneers
    
    E|---7-----7---------7-----7----------8-----8---------7-----7-------|
    B|-----8-----8---8-----5-----5---5------8-----8---8-----5-----5---5-|
    G|-------9-----9---------5-----5----------9-----9---------5-----5---|
    D|-9---------------7---------------10---------------7---------------|
    A|------------------------------------------------------------------|
    E|------------------------------------------------------------------|
    
    E|---7-----7---------7-----7----------8-----8---------7-----7-------|
    B|-----8-----8---8-----5-----5---5------8-----8---8-----5-----5---5-|
    G|-------9-----9---------5-----5----------9-----9---------5-----5---|
    D|-9---------------7---------------10---------------7---------------|
    A|------------------------------------------------------------------|
    E|------------------------------------------------------------------|
    another corporate show a guilty con-
    
    E|---7-----7---------7-----7----------8-----8---------7-----7-------|
    B|-----8-----8---8-----5-----5---5------8-----8---8-----5-----5---5-|
    G|-------9-----9---------5-----5----------9-----9---------5-----5---|
    D|-9---------------7---------------10---------------7---------------|
    A|------------------------------------------------------------------|
    E|------------------------------------------------------------------|
    science grows I'll
    
    E|----12-------12------------12------14-12----|
    B|-------12-------12----12------13---------13-|
    G|----------12-------12------------14---------|
    D|-14---------------------12------------------|
    A|--------------------------------------------|
    E|--------------------------------------------|
    
    E|-12----15------17-15---------12-------14-12---12-|
    B|----------17---------19-17------13----------13---|
    G|--------------17--------------------14-----------|
    D|----15---------------------12--------------------|
    A|-------------------------------------------------|
    E|-------------------------------------------------|
    feel a guilty con-
    (Verse 3) Come let the truth be shared
    
    E|----12-------12------------12------14-12----|
    B|-------12-------12----12------13---------13-|
    G|----------12-------12------------14---------|
    D|-14---------------------12------------------|
    A|--------------------------------------------|
    E|--------------------------------------------|
    
    E|-12----15------17-15---------12-------14-12---12-|
    B|----------17---------19-17------13----------13---|
    G|--------------17--------------------14-----------|
    D|----15---------------------12--------------------|
    A|-------------------------------------------------|
    E|-------------------------------------------------|
    science grows and i'll feel
    (V 3) no one ever dared to break
    
    E|----12-------12------------12------14-12----|
    B|-------12-------12----12------13---------13-|
    G|----------12-------12------------14---------|
    D|-14---------------------12------------------|
    A|--------------------------------------------|
    E|--------------------------------------------|
    
    E|-12----15------17-15---------12-------14-12---12-|
    B|----------17---------19-17------13----------13---|
    G|--------------17--------------------14-----------|
    D|----15---------------------12--------------------|
    A|-------------------------------------------------|
    E|-------------------------------------------------|
    a guilty con-
    (V 3) these endless lies secretly
    
    E|----12-------12------------12------14-12----|
    B|-------12-------12----12------13---------13-|
    G|----------12-------12------------14---------|
    D|-14---------------------12------------------|
    A|--------------------------------------------|
    E|--------------------------------------------|
    
    E|-12----15------17-15---------12-------14-12---12-|
    B|----------17---------19-17------13----------13---|
    G|--------------17--------------------14-----------|
    D|----15---------------------12--------------------|
    A|-------------------------------------------------|
    E|-------------------------------------------------|
    science grow
    (V 3) she cried
    
    E|------------------------------------------------------------|
    B|--5-5-5-5-x-5--5-5-5---5-5-5-5-x-5-5-5-5--5-5-5-5-x-5-5-5-5-|
    G|--5-5-5-5-x-5--5-5-5---4-4-4-4-x-4-4-4-4--5-5-5-5-x-5-5-5-5-|
    D|--4-4-4-4-x-4--5-5-5---5-5-5-5-x-5-5-5-5--4-4-4-4-x-4-5-5-5-|
    A|--0-0-0-0-x-0--0-0-0---x-x-x-x-x-x-x-x-x--0-0-0-0-x-0-0-0-0-|
    E|-----------------------0-0-0-0-x-0-0-0-0--------------------|
    she burns like the sun and i cant look
    
    E|---------------------------------------|
    B|--5-5-5-5-x-5-5-5-5--5-5-5-5-x-5-5-5-5-|
    G|--4-4-4-4-x-4-4-4-4--5-5-5-5-x-5-5-5-5-|
    D|--5-5-5-5-x-5-5-5-5--4-4-4-4-x-4-5-5-5-|
    A|--x-x-x-x-x-x-x-x-x--0-0-0-0-x-0-0-0-0-|
    E|--0-0-0-0-x-0-0-0-0--------------------|
    away and she'll burn
    
    E|----------------------------------------------------------|
    B|--5-5-5-5-x-5-5-5-5--5-5-5-5-x-5-5-5-5--5-5-5-5-x-5-5-5-5-|
    G|--4-4-4-4-x-4-4-4-4--5-5-5-5-x-5-5-5-5--4-4-4-4-x-4-4-4-4-|
    D|--5-5-5-5-x-5-5-5-5--4-4-4-4-x-4-5-5-5--5-5-5-5-x-5-5-5-5-|
    A|--x-x-x-x-x-x-x-x-x--0-0-0-0-x-0-0-0-0--x-x-x-x-x-x-x-x-x-|
    E|--0-0-0-0-x-0-0-0-0---------------------0-0-0-0-x-0-0-0-0-|
    our horizons make no mistakes
    
    E|-------------------10-11-12-11-10---------------|
    B|-11-12-11-10-11-12---------------12-11-10-11-10-|
    G|------------------------------------------------|
    D|------------------------------------------------|
    A|------------------------------------------------|
    E|------------------------------------------------|
    
    E|------------------10-11-12-11-10---------------|
    B|-11h12-11-10-11-12--------------12-11-10-11-10-|
    G|-----------------------------------------------|
    D|-----------------------------------------------|
    A|-----------------------------------------------|
    E|-----------------------------------------------|
    
    E|------------------10-11-12-11-10--------------10-|
    B|-11h12-11-10-11-12--------------12-11-10-11-12---|
    G|-------------------------------------------------|
    D|-------------------------------------------------|
    A|-------------------------------------------------|
    E|-------------------------------------------------|
    
    E|-11-12-11-10--------------------------10-11-|
    B|------------12-11-10-11-12-11-10-11-12------|
    G|--------------------------------------------|
    D|--------------------------------------------|
    A|--------------------------------------------|
    E|--------------------------------------------|
    
    play these 2 bits twice
    
    then verse 3 above
    
    Solo-tremelo pick (with echo & pitch shift pedal) trem pick=strike notes v fast
    E|--12--------------12----------------12----------------12-|
    B|---x---------------x-----------------x-----------------x-|
    G|---9---------------9-----------------9-----------------9-|
    D|---------------------------------------------------------|
    A|---------------------------------------------------------|
    E|---------------------------------------------------------|
    gradually bringing up pedal 2 octaves
    
    pedal up 2 octaves (still trem picking)
    E|--12------12---15---14---14---12---11------11----8----7-|
    B|---x-------x----x----x----------------------------------|
    G|---9-------9---12---11---11----9----8-------8----5----4-|
    D|--------------------------------------------------------|
    A|--------------------------------------------------------|
    E|--------------------------------------------------------|
    
    (still trem picking)
    E|---------------------------------------------------|
    B|---------------------------------------------------|
    G|------9-----9---12----11----11-----9----8---5----4-|
    D|---------------------------------------------------|
    A|--(2)/7-----7---10-----9-----9-----7----6---3----2-|
    E|---------------------------------------------------|
    
    End Chorus
    E|------------------------------------------------------------|
    B|--5-5-5-5-x-5--5-5-5---5-5-5-5-x-5-5-5-5--5-5-5-5-x-5-5-5-5-|
    G|--5-5-5-5-x-5--5-5-5---4-4-4-4-x-4-4-4-4--5-5-5-5-x-5-5-5-5-|
    D|--4-4-4-4-x-4--5-5-5---5-5-5-5-x-5-5-5-5--4-4-4-4-x-4-5-5-5-|
    A|--0-0-0-0-x-0--0-0-0---x-x-x-x-x-x-x-x-x--0-0-0-0-x-0-0-0-0-|
    E|-----------------------0-0-0-0-x-0-0-0-0--------------------|
    and i'll hide from the world behind a bro-
    
    E|---------------------------------------|
    B|--5-5-5-5-x-5-5-5-5--5-5-5-5-x-5-5-5-5-|
    G|--4-4-4-4-x-4-4-4-4--5-5-5-5-x-5-5-5-5-|
    D|--5-5-5-5-x-5-5-5-5--4-4-4-4-x-4-5-5-5-|
    A|--x-x-x-x-x-x-x-x-x--0-0-0-0-x-0-0-0-0-|
    E|--0-0-0-0-x-0-0-0-0--------------------|
    -ken frame and i'll run
    
    E|----------------------------------------------------------|
    B|--5-5-5-5-x-5-5-5-5--5-5-5-5-x-5-5-5-5--5-5-5-5-x-5-5-5-5-|
    G|--4-4-4-4-x-4-4-4-4--5-5-5-5-x-5-5-5-5--4-4-4-4-x-4-4-4-4-|
    D|--5-5-5-5-x-5-5-5-5--4-4-4-4-x-4-5-5-5--5-5-5-5-x-5-5-5-5-|
    A|--x-x-x-x-x-x-x-x-x--0-0-0-0-x-0-0-0-0--x-x-x-x-x-x-x-x-x-|
    E|--0-0-0-0-x-0-0-0-0---------------------0-0-0-0-x-0-0-0-0-|
    forever i can't face the shame
    
    (trem pick again!)
    E|--------------------|
    B|--10-------------12-|
    G|--------------------|
    D|---7--------------9-|
    A|--------------------|
    E|--------------------|
    and i'll hide from the world
    
    E|-----------------------------|
    B|---13--------12-----------13-|
    G|-----------------------------|
    D|---10---------9-----------10-|
    A|-----------------------------|
    E|-----------------------------|
    behind a broken frame and i'll run
    
    E|--------------------------|
    B|--12-----14------------15-|
    G|--------------------------|
    D|---9-----11------------12-|
    A|--------------------------|
    E|--------------------------|
    

    Тональность:

    Нет текста!



    Назад
    Рекомендуем посмотреть другие песни исполнителя «Muse»:

    • Комментарии Facebook ()
    • Комментарии ВКонтакте



    Добавить в Избранное Браузера
    Сохранить здесь Очистить


    x

    0


    +
    -

    +
    -

    -

    Авторизация





    Зарегистрироваться

    M

    Дата и время

    • 19:24:47
       

    Социальные ссылки


    Наши приложения

    • Muzbank App Play Market
    • Muzbank Amazon App