MUZBANK



A Most Complete Bank Of Music Information

МУЗЫКАЛЬНО-ИНФОРМАЦИОННЫЙ БАНК

Поиск по сайту







    MMushroomhead • Episode 29 (аккорды и текст - chords & lyrics)


    349

    Print

    Видео «Episode 29 (Mushroomhead)»

    Видео клипы к песне подбираются автоматически сайтом youtube. Возможны некоторые несоответствия клипов песне.

    ↑ Спрятать рекламу ↑



    Download


     
    
    
    Band: Mushroomhead
    Album: XX
     Song: Episode 29
     
    Legend:
         / = slide to the next fret or note   
         x = mute out [dont let note(s) ring]
    
    |---------------------------|
    |---------------------------|
    |---------------------------|
    |-----0--8-3--2----0--8-3---| X1
    |-----0--8-3--2----0--8-3---|
    |-----0--8-3--2----0--8-3---|
    
    |--------------------------------|
    |--------------------------------|
    |--------------------------------|
    |--3-2-00-3-2-00--3-0-0-0-3/5--3-| X1
    |--3-2-00-3-2-00--3-0-0-0-3/5--3-|
    |--3-2-00-3-2-00--3-0-0-0-3/5--3-|
    
    |------------------------------------|
    |------------------------------------|
    |------------------------------------|
    |-3-2-00-3-2-00--3-0-0-0-3/5---------| X1
    |-3-2-00-3-2-00--3-0-0-0-3/5---------|
    |-3-2-00-3-2-00--3-0-0-0-3/5---------|
    
    
    |------------------------|----------------------|
    |------------------------|----------------------|
    |------------------------|----------------------|
    |3-2-00-3-2-0-6---00-00-0|3-2-00-3-2-06----0-0--| X1
    |3-2-00-3-2-0-6-0-00-00-0|3-2-00-3-2-06-00-0-0-0|
    |3-2-00-3-2-0-6-0-00-00-0|3-2-00-3-2-06-00-0-0-0|
    
    |--------------------------|
    |--------------------------|
    |--------------------------|
    |----00-3-2---6--00-------0| X1
    |3-2-00-3-2-0-60-00-00-00-0|
    |3-2-00-3-2-0-60-00-00-00-0|
    
    |--------------------------|--------------------------|
    |--------------------------|--------------------------|
    |--------------------------|--------------------------|
    |3-2-00-3-2-0-6---00-00-0--|----00-3-2---6--00-------0| X2 
    |3-2-00-3-2-0-6-0-00-00-0-0|3-2-00-3-2-0-60-00-00-00-0|
    |3-2-00-3-2-0-6-0-00-00-0-0|3-2-00-3-2-0-60-00-00-00-0|
    
    |--------------------------|
    |--------------------------|
    |--------------------------|
    |3-2-00-3-2-0-6---00-00-0--| X1
    |3-2-00-3-2-0-6-0-00-00-0-0|
    |3-2-00-3-2-0-6-0-00-00-0-0|
    
    |---------|----------|
    |---------|----------|
    |---------|----------|
    |---8-3---|-----8-3--| X1
    |0--8-3--2|-0---8-3-2|
    |0--8-3--2|-0---8-3-2|
    
    |----------------------|----------------------------|
    |----------------------|----------------------------|
    |----------------------|----------------------------|
    |6----0--00---0-32----5|--6----0--00---0-32----5---0| X1
    |6-00-00-00-000-32----5|--6-00-00-00-000-32----5---0|
    |6-00-00-00-000-32----5|--6-00-00-00-000-32----5---0|
    
    
    |---------------------------|
    |---------------------------|
    |---------------------------|
    |----00-3-2-0-----00-00-0---| X5
    |3-2-00-3-2-0-6-0-00-00-0-0x|
    |3-2-00-3-2-0-6-0-00-00-0-0x|
    
    Tabbed by Franky M. -Synodical33
     

    Тональность:

    Нет текста!



    Назад
    Рекомендуем посмотреть другие песни исполнителя «Mushroomhead»:

    • Комментарии Facebook ()
    • Комментарии ВКонтакте



    Добавить в Избранное Браузера
    Сохранить здесь Очистить


    x

    0


    +
    -

    +
    -

    -

    Авторизация





    Зарегистрироваться

    M

    Дата и время

    • 07:42:49
       

    Социальные ссылки


    Наши приложения

    • Muzbank App Play Market
    • Muzbank Amazon App