MUZBANK



A Most Complete Bank Of Music Information

МУЗЫКАЛЬНО-ИНФОРМАЦИОННЫЙ БАНК

Поиск по сайту







    ММусоргский Модест Петрович • Картинки с выставки - Прогулка 3, Тюильрийский сад (аккорды и текст - chords & lyrics)


    744

    Print

    Видео «Картинки с выставки - Прогулка 3, Тюильрийский сад (Мусоргский Модест Петрович)»

    Видео клипы к песне подбираются автоматически сайтом youtube. Возможны некоторые несоответствия клипов песне.

    ↑ Спрятать рекламу ↑



    Download


    J=120
    
    E|--------------------2-------|-----2------------------------|
    B|-----------------2-----4----|--2-----4---------2-----------|
    G|--1---------4---------------|-------------4---------1------|
    D|-------4--------------------|----------------------------4-|
    A|-----------------1-----2----|--1-----2---------------------|
    E|----------------------------|------------------0----1----2-|
    
    E|-----------2---------2----|--6----7----11----9-----13----14-|
    B|-----------4----2----4----|--7----7----12----9-----14----14-|
    G|----------------3---------|------------11----10----13----15-|
    D|--------------------------|---------------------------------|
    A|--------------------------|---------------------------------|
    E|-4----2-------------------|---------------------------------|
    
    E|-2----4---------2--4-------|--4--6-------2-----------------|
    B|-----------2----------2----|--------7---------4----2-------|
    G|---------------------------|--------------------------4----|
    D|---------------------------|-----------------------------4-|
    A|---------------------------|--------6----------------------|
    E|-----------1----------0----|------------------1----2-----2-|
    
    E|-4---------2--4-----------|------2--4-----------|
    B|------2----------2--------|------------2--------|
    G|--------------------------|---------------------|
    D|-6---------4--6-----------|------4--6-----------|
    A|------4----------4--------|------------4--------|
    E|--------------------------|---------------------|
    
    E|--14----------14-------|
    B|--0-----16----0-----16-|
    G|-----------------------|
    D|-----------------------|
    A|--14----------14-------|
    E|--------16----------16-|
    
    E|-14--16-14-13----------13----14-13-16-14-13----|
    B|--------------16-15-16----16----------------16-|
    G|-----------------------------------------------|
    D|-----------------------------------------------|
    A|-----------------------------------------------|
    E|-----------------------------------------------|
    
    E|--14----------14-------|
    B|--0-----16----0-----16-|
    G|-----------------------|
    D|-----------------------|
    A|--14----------14-------|
    E|--------16----------16-|
    
    E|-14--16-14-13----------13----14-13-16-14-13----|
    B|--------------16-15-16----16----------------16-|
    G|-----------------------------------------------|
    D|-----------------------------------------------|
    A|-----------------------------------------------|
    E|-----------------------------------------------|
    
    E|--16----------16-------|
    B|--------16----------16-|
    G|-----------------------|
    D|--15----------15-------|
    A|-----------------------|
    E|--------16----------16-|
    
    E|-16--19-18-16----------------------16----------|
    B|--------------19-18-16----16-18-16----19-18-16-|
    G|-----------------------19----------------------|
    D|-----------------------------------------------|
    A|-----------------------------------------------|
    E|-----------------------------------------------|
    
    E|--16----------16-------|
    B|--------16----------16-|
    G|-----------------------|
    D|-----------------------|
    A|--15----------15-------|
    E|--------16----------16-|
    
    E|-17----------17--21-19-17----------|
    B|-------16-----------------20-19-17-|
    G|-----------------------------------|
    D|-----------------------------------|
    A|-----------------------------------|
    E|-----------------------------------|
    
    E|--17----------17--21-19-17----------|
    B|--------16-----------------20-19-17-|
    G|------------------------------------|
    D|------------------------------------|
    A|------------------------------------|
    E|------------------------------------|
    
    E|-0---------------------------|--14----------14-------|
    B|---4-2-0---------------------|--0-----16----0-----16-|
    G|---------2-1-----------1-----|-----------------------|
    D|-------------4-2-3--4--------|-----------------------|
    A|--------------------------4--|--14----------------11-|
    E|-----------------------------|--------16-------------|
    
    E|-14--16-14-13----------13----14-13-16-14-13----|
    B|--------------16-15-16----16----------------16-|
    G|-----------------------------------------------|
    D|-----------------------------------------------|
    A|-----------------------------------------------|
    E|-----------------------------------------------|
    
    E|----------------------1-2-|
    B|----------------0-3-4-----|
    G|--------------3-----------|
    D|------0-1-3-4-------------|
    A|--1-2---------------------|
    E|--------------------------|
    
    E|-6------7--8--14--8--7--|--6------7-9-7--7-----------|
    B|-7------7--7------------|--7----------7----9-7-------|
    G|-8------8--7------7--7--|--8----------7--------7-----|
    D|------------------------|------------------------9---|
    A|------------------------|--------------------------9-|
    E|------------------------|----------------------------|
    
    E|-----------------13--11--13--|------------13------------13-|
    B|-11------12--13--------------|--11----13------11----13-----|
    G|-----------------------------|-----------------------------|
    D|-13--------------------------|-----------------------------|
    A|-----------------------------|--11------------11-----------|
    E|-------------11--------------|--------11------------11-----|
    
    E|-6------7--8--14--8--7--|--6------7-9-7----6-|
    B|-7------7--7------------|--7------7---7----7-|
    G|-8------8--7------7--7--|--------------------|
    D|------------------------|--------------------|
    A|------------------------|--------------------|
    E|------------------------|--------------------|
    
    E|-15-----14-17-15-------------14----17-15-|
    B|-----------------14-15-16-17----17-------|
    G|-----------------------------------------|
    D|-0---------------0-----------------------|
    A|-----------------------------------------|
    E|-----------------------------------------|
    
    E|-15-----14-17-15-------------14----14-15-|
    B|-----------------14-15-16-17----17-------|
    G|-----------------------------------------|
    D|-0---------------0-----------------------|
    A|-----------------------------------------|
    E|-----------------------------------------|
    
    E|-14--------------14--------------|-17----9-7-5---------------|
    B|-----12-13-14-15-----12-13-14-15-|----16-------8-7-5---------|
    G|-----13--------------13----------|-------------------8-6-4---|
    D|-13--------------13--------------|-------------------------7-|
    A|---------------------------------|---------------------------|
    E|---------------------------------|---------------------------|
    
    E|-17------12-11-9-------------------|--4---------4------|
    B|-----------------12-10-9-----------|--2----4----2----4-|
    G|-------------------------11-9-8----|-------------------|
    D|--------------------------------11-|--3---------3------|
    A|-----------------------------------|-------6---------6-|
    E|-----------------------------------|-------------------|
    
    E|---------------------------------|--14----------14-------|
    B|---------------------------------|--0-----16----0-----16-|
    G|-------------------------------0-|-----------------------|
    D|---------------1-2-------2-3-4---|-----------------------|
    A|---------1-2-4-----2-3-4---------|--14----------14-------|
    E|-2-3-4-5-------------------------|--------16----------16-|
    
    E|-14--16-14-13----------13----14-13-16-14-13----|
    B|--------------16-15-16----16----------------16-|
    G|-----------------------------------------------|
    D|-----------------------------------------------|
    A|-----------------------------------------------|
    E|-----------------------------------------------|
    
    E|-------------------------------------------18-19-|--2--------|
    B|----------------------------16-15-16-18-19-------|--4--------|
    G|-------------------15-16-19----------------------|---------*-|
    D|----------13-15-16-------------------------------|--4------*-|
    A|-13-14-17----------------------------------------|--2--------|
    E|-------------------------------------------------|-----------|
    

    Тональность:

    Нет текста!



    Назад

    • Комментарии Facebook ()
    • Комментарии ВКонтакте



    Добавить в Избранное Браузера
    Сохранить здесь Очистить


    x

    0


    +
    -

    +
    -

    -

    Авторизация





    Зарегистрироваться

    M

    Дата и время

    • 19:38:18
       

    Социальные ссылки


    Наши приложения

    • Muzbank App Play Market
    • Muzbank Amazon App