MUZBANK



A Most Complete Bank Of Music Information

МУЗЫКАЛЬНО-ИНФОРМАЦИОННЫЙ БАНК

Поиск по сайту







    MMxpx • Lonesome Town (аккорды и текст - chords & lyrics)


    384

    Print

    Видео «Lonesome Town (Mxpx)»

    Видео клипы к песне подбираются автоматически сайтом youtube. Возможны некоторые несоответствия клипов песне.

    ↑ Спрятать рекламу ↑



    Download


     
    
    
    Song : Lonesome Town
    Band : MxPx
    Tabbed By : Diamond Jerry (Raptureboy182@yahoo.com)
    
    Standard Tuning  
    
    ------------------------------------------------------------------------------
    
    [Intro]
    e|-------------------------------------------------------------|
    B|-------------------------------------------------------------|
    G|----------------------------77777777-------------------------|
    D|--44-22--77777777----44-22--77777777----(2x)--then---4--2----|
    A|--44-22--77777777----44-22--55555555-----------------4--2----|
    E|--22-00--55555555----22-00---------------------------2--0----|
    
    
    [Verse]
    e|-------------------------------------------------------------|
    B|-------------------------------------------------------------|
    G|--^^^^^^^^--^^^^^^^^---xx-7-xx-7-xx-7------------------------|
    D|--77777777--77777777---xx-7-xx-7-xx-7----4--2----------------|
    A|--77777777--77777777---xx-5-xx-5-xx-5----4--2----------------|
    E|--55555555--44444444---------------------2--0----------------|
    
    e|------------------------------------------------------|
    B|------------------------------------------------------|
    G|--^^^^^^^^--^^^^^^^^---xx-7-xx-7-xx-7-xx-7------------|
    D|--77777777--77777777---xx-7-xx-7-xx-7-xx-7------------|
    A|--77777777--77777777---xx-5-xx-5-xx-5-xx-5------------|
    E|--55555555--44444444----------------------------------|
    
    
    [Pre-chorus]
    e|-------------------------|-------------0-----------------0~--|
    B|-------------------------|------3--------2------------0------|
    G|--44444---------11111----|--------4--------2------------1----|
    D|--44444--77777--22222----|----4--------------2------2--------|
    A|--22222--77777--22222----|--2--------------------------------|
    E|---------55555--00000----|------------------------0----------|
    
    e|---------------------------------------------------------------------------------|
    B|---------------------------------------------------------------------------------|
    G|-^^^^^^^^--^^^^^^^^--xx-7-xx-7-xx-8-xx-8--99999999--77777777--66666666--11111----|
    D|-77777777--77777777--xx-7-xx-7-xx-8-xx-8--99999999--77777777--66666666--22222----|
    A|-77777777--77777777--xx-5-xx-5-xx-6-xx-6--77777777--55555555--44444444--22222----|
    E|-55555555--44444444-----------------------------------------------------00000----|
    
    
    [Chorus]
    e|--55555---44444---55555---55555---55555---55555---22222---77777777---------------|
    B|--55555---55555---55555---55555---66666---55555---22222---77777777---------------|
    G|--66666---66666---66666---77777---77777---66666---44444---99999999---------------|
    D|--77777---66666---77777---77777---77777---77777---44444---99999999---------------|
    A|--77777---44444---77777---55555---55555---77777---22222---77777777---------------|
    E|--55555-----------55555-------------------55555----------------------------------|
    
    e|--55555---44444---55555---55555---55555---77777---2--0--------|--------------------|
    B|--55555---55555---55555---55555---66666---77777---2--0--------|--------------------|
    G|--66666---66666---66666---77777---77777---66666---4--1--------|--------77777-------|
    D|--77777---66666---77777---77777---77777---77777---4--2--77777-|-44-22--77777--4--2-|
    A|--77777---44444---77777---55555---55555---77777---2--2--77777-|-44-22--55555--4--2-|
    E|--55555-----------55555-------------------55555------0--55555-|-22-00---------2--0-|
    
    
    -repeat verse, pre-chorus, chorus-
    
    [Outro]
    e|---------5~--5~----------|-----------------------------|
    B|---------5~--6~----------|-----------------------------|
    G|---------7~--7~--77777---|-----------------------------|
    D|--4~-2~--7~--7~--77777---|--777--777--444--222---(3x)--|
    A|--4~-2~--5~--5~--55555---|--777--777--444--222---------|
    E|--2~-0~------------------|--555--444--222--000---------|
    
    e|----------------------------------------------------------------------------------|
    B|----------------------------------------------------------------------------------|
    G|--77777777--99999999-------------------------------------------7~-----------------|
    D|--77777777--99999999---77777777--77777777--44444444--22222222--7~-----44--22---7--|
    A|--55555555--77777777---77777777--77777777--44444444--22222222--5~-----44--22---7--|
    E|-----------------------55555555--44444444--22222222--00000000---------22--00---5--|
    
    ------------------------------------------------------------------------------
    
    Any comments or corrections,just mail me to Raptureboy182@yahoo.com/ICQ #115343571
     

    Тональность:

    Нет текста!



    Назад
    Рекомендуем посмотреть другие песни исполнителя «Mxpx»:

    • Комментарии Facebook ()
    • Комментарии ВКонтакте



    Добавить в Избранное Браузера
    Сохранить здесь Очистить


    x

    0


    +
    -

    +
    -

    -

    Авторизация





    Зарегистрироваться

    M

    Дата и время

    • 12:57:32
       

    Социальные ссылки


    Наши приложения

    • Muzbank App Play Market
    • Muzbank Amazon App