MUZBANK



A Most Complete Bank Of Music Information

МУЗЫКАЛЬНО-ИНФОРМАЦИОННЫЙ БАНК

Поиск по сайту







    MMy Dying Bride • Your River (аккорды и текст - chords & lyrics)


    237

    Print

    Видео «Your River (My Dying Bride)»

    Видео клипы к песне подбираются автоматически сайтом youtube. Возможны некоторые несоответствия клипов песне.

    ↑ Спрятать рекламу ↑



    Download


     
    
    
    Your River
    
         Tuning: Down 1 1/2 steps to C#
                 Low C# F# B E G# C# High
    
         Intro - Clean with a slight delay
         C#--0h2--2----3p2--0h2--2--0h2--2----3p2--0h2--2--7h9--9----10p9--7h9--9--
         G#--0----0----0----0----0--0----0----0----0----0--7----7----7-----7----7--
         E ------------------------------------------------------------------------
    
         C#--7h9--9----10p9--75--5--  Two times
         G#--7----7----7-----75--5--
         E --------------------------
    
         Then
         C#--0h2--2----3p2--0h2--2-
         G#--0----0----0----0----0-
         E ------------------------
    
           First riff
           Both guitars
         C# |---------------------------------------------------
         G# |---------------------------------------------------
         E  |---------------------------------------------------
         B  |--4-----5--2--------4------5--7----4------5--2-----
         F# |--4-----5--2--22----4------5--7----4------5--2--22-
         C# |--2-----3--0--00----2------3--5----2------3--0--00-
    
          Guitar 1
         |--------------------------------------------------------------|
         |--------------------------------------------------------------|
         |--------------------------------------------------------------|
         |--4-----------------------------------------------------------|
         |--4--0--1---2--------------------0---2-2-------------2-0------|
         |--2-------------3-2-3-2-2---2-3----------3-2-3-2-2-------3-0--|
         |                                                              |              
         |                                                              |
         |Guitar 2 (violin part)                                        |          
         |--------------------------------------------------------------|
         |---------------------5-----------------------5----------------|
         |-------------4-4-767---6-676--764----4-4-767---6-676----------|
         |--4---2--3--------------------------------------------4--5----|
         |--4-----------------------------------------------------------|
         |--2------------------------------------------------------------|
    
    
         |---------------------------------------------------|
         |---------------------------------------------------|
         |---------------------------------------------------|
         |--4-----5--2--------4------5--7----4------5--2-----|
         |--4-----5--2--22----4------5--7----4------5--2--22-|
         |--2-----3--0--00----2------3--5----2------3--0--00-|
    
         Guitar 1
         |--------------------------------------------------------------|
         |--------------------------------------------------------------|
         |--------------------------------------------------------------|
         |--4-----------------------------------------------------------|
         |--4--0--1---2--------------------0---2-2-------------2-0------|
         |--2-------------3-2-3-2-2---2-3----------3-2-3-2-2-------3-0--|
         |                                                              |                
         |  Guitar 2 (violin part)                                      |
         |--------------------------------------------------------------|
         |---------------------5-----------------------5----------------|
         |-------------4-4-767---6-676--764----4-4-767---6-676----------|
         |--4---2--3--------------------------------------------4--5----|
         |--4-----------------------------------------------------------|
         |--2-----------------------------------------------------------|
    
                                          5 times
         ----|------------------------------------------|first time guitar one
         ----|------------------------------------------|by itself until the 
         ----|-o--------------------------------------o-|last three notes when
         --2-|-o-6-5-----6-5--------6-5-----6-5-------o-|whole band join in
         --2-|-------5-4-----4-3--------3-2-------------|
         --0-|----------------------------------6-5-3---|
                                                                        4 times
         |------------------|-----------------|-----------------|-----------------|
         |------------------|-----------------|-----------------|-----------------|
         |o-----------------|-----------------|-----------------|----------------o|
         |o-----------------|-----------------|-----------------|----------------o|
         |--6-------6---6---|-5-------5---5---|-8-------8---8---|-9-------9---9---|
         |--6-6-6-6-6-6-6-6-|-3-3-3-3-3-3-3-3-|-6-6-6-6-6-6-6-6-|-7-7-7-7-7-7-7-7-|
         |                                                                        |
         |----------3ah-----|-----------------|-----------------|-----------------|
         |------------------|---------3ah-----|---------3ah-----|---------4ah-----|
         |o-----------------|-----------------|-----------------|----------------o|
         |o-----------------|-----------------|-----------------|----------------o|
         |------------------|-----------------|-----------------|-----------------|
         |------------------|-----------------|-----------------|-----------------|
                   8 times                         8 times
         |----------------|-------------|----------------|
         |----------------|-------------|----------------|
         |o--------------o|--bass plays-|o--------------o|
         |o---8-9------0-o|--riff 4 ----|o---8-9------0-o|
         |--7-----9-10----|--times by --|--7-----9-10----|
         |----------------|--itself-----|----------------|
    
          G1                                                              5 times
         |--------------------|--------------|-------------------|----------------|
         |--------------------|--------------|-------------------|----------------|
         |o-------------------|--------------|-------------------|---------------o|
         |o--9--9--10--12--7--|-7-9-97-75--|-5h7p5-7-4h5-42-2-|--9--10--12--7-o|
         |---7----------------|--------------|-------------------|----------------|
         |---0----------------|--------------|-------------------|----------------|
         |G2                                                                      |
         |--------------------|--------------|-------------------|----------------|
         |--------------------|--------------|-------------------|----------------|
         |o-------------------|--------------|-------------------|----------------|
         |o--9----------------|-7------------|-5-----------------|----------------|
         |---7----------------|-7------------|-5-------4-5-4-2-2-|-(2)------------|
         |---0----------------|-5------------|-3-------2-3-2-0-0-|-(0)------------|
    
         G1      I am unsure of the timing for the second guitar just listen to the song!!
         -------------|----------------|----------------|--------------|--------------|
         -------------|-----------6--5-|-----------6--5-|---------6--5-|------------5-|
         -------------|-o-7-5-7--------|--7-5-7---------|--7-5-7-------|---5--5--7---o|
         --4--5--2----|-o--------------|----------------|--------------|-------------o|
         --4--5--2--22|----------------|----------------|--------------|--------------|
         --2--3--0--00|----------------|----------------|--------------|--------------|
         G2           |                                                               |
         -------------|----------------|-------------8-8|--------------|------------8-|
         -------------|---------8-10-11|--11-10----8----|--11-10---10-8|---10-10-11---|
         -------------|-o-7-5-7--------|--------10------|--------------|-------------o|
         --4--5--2----|-o--------------|----------------|--------------|-------------o|
         --4--5--2--22|----------------|----------------|--------------|--------------|
         --2--3--0--00|----------------|----------------|--------------|--------------|
    
                                                   7 times
         |------------------------------------------------|
         |------------------------------------------------|                              
         |o----------------------------------------------o|
         |o-5---------7---------2----------3---3-3/5-5ah-o|
         |--5---------7---------2----------3--------------|
         |--3----3-3--5----5-3--0-----0-0--1--------------|
    
          G1
         |---------------|----------------|--------------|--------------|
         |----------6--5-|-----------6--5-|---------6--5-|------------5-|
         |o-7-5-7--------|--7-5-7---------|--7-5-7-------|---5--5--7---o|
         |o--------------|----------------|--------------|-------------o|
         |---------------|----------------|--------------|--------------|
         |---------------|----------------|--------------|--------------|
         |G2                                                            |
         |---------------|-------------8-8|--------------|------------8-|
         |--------8-10-11|--11-10----8----|--11-10---10-8|---10-10-11---|
         |o-7-5-7--------|--------10------|--------------|-------------o|
         |o--------------|----------------|--------------|-------------o|
         |---------------|----------------|--------------|--------------|
         |---------------|----------------|--------------|--------------|
    
         |------------------|-----------------|-----------------|-----------------|
         |------------------|-----------------|-----------------|-----------------|
         |o-----------------|-----------------|-----------------|----------------o|
         |o-----------------|-----------------|-----------------|----------------o|
         |--6-------6---6---|-5-------5---5---|-8-------8---8---|-9-------9---9---|
         |--6-6-6-6-6-6-6-6-|-3-3-3-3-3-3-3-3-|-6-6-6-6-6-6-6-6-|-7-7-7-7-7-7-7-7-|
         |                                                                        |
         |----------3ah-----|-----------------|-----------------|-----------------|
         |------------------|---------3ah-----|---------3ah-----|---------4ah-----|
         |o-----------------|-----------------|-----------------|----------------o|
         |o-----------------|-----------------|-----------------|----------------o|
         |------------------|-----------------|-----------------|-----------------|
         |------------------|-----------------|-----------------|-----------------|                                                                6 times
    
                                           6 times
         |-----------------------------------------|-----------------------------------
         |-----------------------------------------|-----------------------------------
         |o--------------------------------------o-|-----------------------------------
         |o-6-5-----6-5--------6-5-----6-5-------o-|-6-5-----6-5-------6-5-----6-5-----
         |------5-4-----4-3--------3-2-------------|-----5-4------4-3------3-2---------
         |---------------------------------6-5-3---|-------------------------------6-5-
    
         --------------
         --------------
         --------------
         --4--5--2-----
         --4--5--2--22-
         --2--3--0--00-
     

    Тональность:

    Нет текста!



    Назад
    Рекомендуем посмотреть другие песни исполнителя «My Dying Bride»:

    • Комментарии Facebook ()
    • Комментарии ВКонтакте



    Добавить в Избранное Браузера
    Сохранить здесь Очистить


    x

    0


    +
    -

    +
    -

    -

    Авторизация





    Зарегистрироваться

    M

    Дата и время

    • 09:10:10
       

    Социальные ссылки


    Наши приложения

    • Muzbank App Play Market
    • Muzbank Amazon App