MUZBANK



A Most Complete Bank Of Music Information

МУЗЫКАЛЬНО-ИНФОРМАЦИОННЫЙ БАНК

Поиск по сайту







    MMymp • A Little Bit (аккорды и текст - chords & lyrics)


    158

    Print

    Видео «A Little Bit (Mymp)»

    Видео клипы к песне подбираются автоматически сайтом youtube. Возможны некоторые несоответствия клипов песне.

    ↑ Спрятать рекламу ↑



    Download



     
    
    
    A LITTLE BIT
    MYMP
    
    johnsantos_17@yahoo.com
    
    Standard tuning: (EADGBE)
    
    Intro:
    
    E---5---4---3-----
    B-7---5---3---5---
    G-----------------
    D-----------------
    A-5---4---3---2---
    E-----------------
    
    Verse:
    
    E-4--4--4--4-------
    B-5--4--5--4--75--
    G-6--4--6--4--42--
    D-7--2--7--4--64--play 2x
    A-0-----0--6--42--
    E-5-----5--4-------
    
    E-4--4-4--5--2--------
    B-5--4-5--7--5--------
    G-6--4-4--6--2--------
    D-7--4-6--7--4--------
    A-0--6-4--5--2--------
    E-5--4--------------
    
    Chorus:
    
    E-4--4-4-|-4--4------|-4--4-4----5--2-----
    B-5--4-5-|-5--4--75-|-5--4-5----7--5---5-
    G-6--4-4-|-6--4--42-|-6--4-4----6--2--2--
    D-7--4-6-|-7--4--64-|-7--4-6----7--4-----
    A-0--6-4-|-0--6--42-|-0--6-4----5--2-----
    E-5--4---|-5--4------|-5--4---------------
    
    2nd verse:
    
    E-4--4-		-----------------------
    B-5--4-		-----------------------
    G-6--4-		-----------------------
    D-7--2-		------------4-4h6-4~---lead-in
    A-0----		-2-2h4-4sl6------------
    E-5----		-----------------------
    
    E-4--4------	-7sl/9-sl7------
    B-5--4--75-	-7sl/9-sl7------
    G-6--4--42-	-----------------lead-in
    D-7--4--64-	-----------------
    A-0--6--42-	----------------
    E-5--4------	----------------
    
    E-4--4-4--5--2--
    B-5--4-5--7--5--
    G-6--4-4--6--2--
    D-7--4-6--7--4--
    A-0--6-4--5--2--
    E-5--4----------
    
    2nd Chorus:
    
    E-4--4-4-|-4--4------|-4--4-4-------5---4---3-----
    B-5--4-5-|-5--4--75-|-5--4-5-----7---5---3---5---
    G-6--4-4-|-6--4--42-|-6--4-4---------------------
    D-7--4-6-|-7--4--64-|-7--4-6----------------------
    A-0--6-4-|-0--6--42-|-0--6-4-----5---4---3---2----
    E-5--4---|-5--4------|-5--4-----------------------
    
    Adlib: same as 2nd verse
    
    Outro: (after last chorus)
    
    E---5---4---3--|-4-
    B-7---5---3---5|-4-
    G--------------|-4-
    D--------------|-2-
    A-5---4---3---2|---
    E--------------|---
    
    =====()w&_17======
     

    Тональность:

    Нет текста!



    Назад
    Рекомендуем посмотреть другие песни исполнителя «Mymp»:

    • Комментарии Facebook ()
    • Комментарии ВКонтакте



    Добавить в Избранное Браузера
    Сохранить здесь Очистить


    x

    0


    +
    -

    +
    -

    -

    Авторизация





    Зарегистрироваться

    M

    Дата и время

    • 15:37:57
       

    Социальные ссылки


    Наши приложения

    • Muzbank App Play Market
    • Muzbank Amazon App