MUZBANK



A Most Complete Bank Of Music Information

МУЗЫКАЛЬНО-ИНФОРМАЦИОННЫЙ БАНК

Поиск по сайту







    MMymp • A Little Bit (аккорды и текст - chords & lyrics)


    170

    Print

    Видео «A Little Bit (Mymp)»

    Видео клипы к песне подбираются автоматически сайтом youtube. Возможны некоторые несоответствия клипов песне.

    ↑ Спрятать рекламу ↑



    Download



     
    
    
    ~**A LITTLE BIT**~
    ~MYMP~
    tabbed by: sHeRwiN BuLaLa
    *_*_*_sherwin_807@yahoo.com_*_*_*
    
    i dont think this is 100% correct but...
    this tab is 99.8% correct...
    rate nyo poh!!!please!!
    
    intro:
    |---5----4----3--0-|
    |-7----5----3------|
    |------------------|
    |------------------|
    |-5----4----3----2-|
    |------------------|
    
    verse1:
    |-4--4------4--4--4-|----4---4----4---------|
    |----5---5--4--4----|----5--------4---7---5-|
    |---6--6---------4--|---6--6----------------|]
    |--7--------2-------|--7--------------------|]2x
    |-0-----------------|-0----------6--0-4-0-2-|
    |-------------------|-----------4-----------|
    
    |----4---------4---------------5----------|
    |----5---5-----4---5--5-----7-----5---5---|
    |---6--6---6---4---4--4----6----------2---|
    |--7---------------6-6----7---7-----4-----|
    |-0-----------6--0-4-----5--------2-------|
    |------------4----------------------------|
    
    chorus:
    |--4----------------------4---4----|
    |--5----------------------4---5----|
    |--6----------------------4---4----|
    |--7----------------------4---6----|
    |--0----------------------6---4----|
    |--x----------------------4--------|
    im a little bit of crazy,.........
    |--4------------------4---4/2----|
    |--5------------------4---7/5----|
    |--6------------------4---4/2----|
    |--7------------------4---6/4----|
    |--0------------------6---4/2----|
    |--x------------------4----------|
    im a little bit of lonely.........
    |--4--4-----4------------4-----------4-------|
    |--5--5-----------5------4---5-----5---------|
    |--6--6--6---------------4-------4-----------|
    |--7-----------7--------4------6-------------|
    |--0--------------------6----4---------------|
    |--x------------------0-4--------------------|
    i need a cure.......
    |-----------------------|
    |--7-------7---------5--|
    |------6-------6--------|
    |----7---7---7----------|
    |--5-----------------2--|
    |-----------------------|
    & i will fall............
    
    verse2:
    1		     2					 1		       2
    |-4--4--------------|----4---4----4---------|	|------------------|--7h9-9-|
    |----5---5--9--9--9-|----5--------4---7---5-|	|------------------|--7h9---|
    |---6--6----8--8----|---6--6----------------|]	|------------------|--------|
    |--7-------------9--|--7--------------------|]2x|---------9-9/11-9-|--------|
    |-0---------7-------|-0----------6--0-4-0-2-|	|7-9-9/11----------|--------|
    |-------------------|-----------4-----------|	|------------------|--------|
    im always on d run.....
    |-4--4---------4---------------5----------|
    |----5---5-----4---5--5-----7-----5---5---|
    |---6--6---6---4---4--4----6----------2---|
    |--7---------------6-6----7---7-----4-----|
    |-0-----------6--0-4-----5--------2-------|
    |------------4----------------------------|
    
    chorus2:
    |--4----------------------4---4----|
    |--5----------------------4---5----|
    |--6----------------------4---4----|
    |--7----------------------4---6----|
    |--0----------------------6---4----|
    |--x----------------------4--------|
    im a little bit of crazy,.
    |--4------------------4---4/2----|
    |--5------------------4---7/5----|
    |--6------------------4---4/2----|
    |--7------------------4---6/4----|
    |--0------------------6---4/2----|
    |--x------------------4----------|
    im a little bit of a lonely,
    |--4--4-----4------------4-----------4-------|
    |--5--5-----------5------4---5-----5---------|
    |--6--6--6---------------4-------4-----------|
    |--7-----------7--------4------6-------------|
    |--0--------------------6----4---------------|
    |--x------------------0-4--------------------|
    
    |---5----4----3--0-|
    |-7----5----3------|
    |------------------|
    |------------------|
    |-5----4----3----2-|
    |------------------|
    
    verse3:(after solo/adlib)
    
    |-4--4------4--4--4-|----4---4----4---------|
    |----5---5--4--4----|----5--------4---7---5-|
    |---6--6---------4--|---6--6----------------|]
    |--7--------2-------|--7--------------------|]2x
    |-0-----------------|-0----------6--0-4-0-2-|
    |-------------------|-----------4-----------|
    
    |----4---------4---------------5----------|
    |----5---5-----4---5--5-----7-----5---5---|
    |---6--6---6---4---4--4----6----------2---|
    |--7---------------6-6----7---7-----4-----|
    |-0-----------6--0-4-----5--------2-------|
    |------------4----------------------------|
    
    chorus3:
    
    |--4----------------------4---4----|
    |--5----------------------4---5----|
    |--6----------------------4---4----|
    |--7----------------------4---6----|
    |--0----------------------6---4----|
    |--x----------------------4--------|
    im a little bit of crazy,.
    |--4------------------4---4/2----|
    |--5------------------4---7/5----|
    |--6------------------4---4/2----|
    |--7------------------4---6/4----|
    |--0------------------6---4/2----|
    |--x------------------4----------|
    im a little bit of a lonely,
    |--4--4-----4------------4-----------4-------|
    |--5--5-----------5------4---5-----5---------|
    |--6--6--6---------------4-------4-----------|
    |--7-----------7--------4------6-------------|
    |--0--------------------6----4---------------|
    |--x------------------0-4--------------------|
    i need a cure............
    |-----------------------|
    |--7-------7---------5--|
    |------6-------6--------|
    |----7---7---7----------|
    |--5-----------------2--|
    |-----------------------|
    & i will fall............
    
    |--4---------------------------4---4----|
    |--5---------------------------4---5----|
    |--6---------------------------4---4----|
    |--7---------------------------4---6----|
    |--0---------------------------6---4----|
    |--x---------------------------4--------|
    im juz a little bit of crazy,.....fool
    |--4---------------------------4---4/2----|
    |--5---------------------------4---7/5----|
    |--6---------------------------4---4/2----|
    |--7---------------------------4---6/4----|
    |--0---------------------------6---4/2----|
    |--x---------------------------4----------|
    im a little bit of a lonely,,      oh,oh
    |--4--4-----4------------4-----------4-------|
    |--5--5-----------5------4---5-----5---------|
    |--6--6--6---------------4-------4-----------|
    |--7-----------7--------4------6-------------|
    |--0--------------------6----4---------------|
    |--x------------------0-4--------------------|
    i need a cure...
    |------------------------4----|
    |--7-------7---------5---4----|
    |------6-------6---------4----|
    |----7---7---7-----------2----|
    |--5-----------------2--------|
    |-----------------------------|
    & i will fall............
    
    ENJOY!!!!!
    -sHrwN-
     

    Тональность:

    Нет текста!



    Назад
    Рекомендуем посмотреть другие песни исполнителя «Mymp»:

    • Комментарии Facebook ()
    • Комментарии ВКонтакте



    Добавить в Избранное Браузера
    Сохранить здесь Очистить


    x

    0


    +
    -

    +
    -

    -

    Авторизация





    Зарегистрироваться

    M

    Дата и время

    • 13:17:42
       

    Социальные ссылки


    Наши приложения

    • Muzbank App Play Market
    • Muzbank Amazon App