MUZBANK



A Most Complete Bank Of Music Information

МУЗЫКАЛЬНО-ИНФОРМАЦИОННЫЙ БАНК

Поиск по сайту







    ННаутилус Помпилиус • На берегу безымянной реки (аккорды и текст - chords & lyrics)


    1772

    Print

    Видео «На берегу безымянной реки (Наутилус Помпилиус)»

    Видео клипы к песне подбираются автоматически сайтом youtube. Возможны некоторые несоответствия клипов песне.

    ↑ Спрятать рекламу ↑



    Download


    Dm
    мы будем жить с тобой
    Am7
    в маленькой хижине
    Gm     Am       Dm
    на берегу очень тихой реки
    Dm                            Am
    никто и никогда - поверь - не будет обиженным
       G         Am7      Dm
    на то что когда-то покинул пески
    
          B      F        C       F
    На берегу очень дикой реки,
     B      F       Gm     Am7
    На берегу этой тихой реки, 
       Gm      Am7        Gm      Am7
    В дебрях чужих, у священной воды,
       Gm       C       F        A 
    В теплых лесах безымянной реки.
    
    движенья твои очень скоро станут плавными
    походка и жесты осторожны и легки
    никто и никогда не вспомнит самого главного
    у безмятежной и медленной реки
    
    на берегу очень дикой реки
    на берегу этой тихой реки
    в дебрях чужих у священной воды
    в теплых лесах безымянной реки
    
    и если когда-нибудь случится беда
    найди верный камень там где скалы у реки
    прочти то что высекла холодная вода
    но ты эту тайну навсегда сбереги
    
    на берегу очень дикой реки
    на берегу этой тихой реки
    в дебрях чужих у священной воды
    в теплых лесах безымянной реки
    
    
        Dm                                        Am7
    e|-----13-----12-----10------------------10-|----------------------------|
    H|--10-----10-----10------10----10----10----|--8-------------------------|
    G|--10-----------------------12----10-------|-----5----5-------5----5----|
    D|--0---------------------------0-----------|-------5----5-------5----5--|
    A|------------------------------------------|--0------------0------------|
    E|------------------------------------------|----------------------------|
    
    
        Gm          Am7                   Dm                                                          
    e|--6------5-----------------------|-----------------------0-----|
    H|-------3-----3-8-------8h10p8----|--3--------------------------|
    G|-----3-----3-------10---------10-|-----2----2--------0h2-------|
    D|---------------------------------|--0----0----0--2h3--------0--|
    A|---------------0-----------------|-----------------------------|
    E|--3------------------------------|-----------------------------|
    
    
        Dm                                         Am7                                                                    
    e|-----13-----12-----10------------------10-|----------------------------|
    H|--10-----10-----10------10----10----10----|--8-------------------------|
    G|--10-----------------------12----10-------|-----5----5-------5----5----|
    D|------------------------------0-----------|-------5----5-------5----5--|
    A|------------------------------------------|--0------------0------------|
    E|------------------------------------------|----------------------------|
    
    
        Gm          Am7                   Dm                                                            
    e|--6------5-----------------------|-----------------------0-----|
    H|-------3-----3-8-------8h10p8----|--3--------------------------|
    G|-----3-----3-------10---------10-|-----2----2--------0h2-------|
    D|---------------------------------|--0----0----0--2h3--------0--|
    A|---------------0-----------------|-----------------------------|
    E|--3------------------------------|-----------------------------|
    

    Тональность:

    Нет текста!



    Назад
    Рекомендуем посмотреть другие песни исполнителя «Наутилус Помпилиус»:

    • Комментарии Facebook ()
    • Комментарии ВКонтакте



    Добавить в Избранное Браузера
    Сохранить здесь Очистить


    x

    0


    +
    -

    +
    -

    -

    Авторизация





    Зарегистрироваться

    M

    Дата и время

    • 22:20:40
       

    Социальные ссылки


    Наши приложения

    • Muzbank App Play Market
    • Muzbank Amazon App