MUZBANK



A Most Complete Bank Of Music Information

МУЗЫКАЛЬНО-ИНФОРМАЦИОННЫЙ БАНК

Поиск по сайту







    NNazareth • Star (аккорды и текст - chords & lyrics)


    568

    Print

    Видео «Star (Nazareth)»

    Видео клипы к песне подбираются автоматически сайтом youtube. Возможны некоторые несоответствия клипов песне.

    ↑ Спрятать рекламу ↑



    Download


    Intro:
    
    Gadd? Gadd? C D
    e||-------3---------|-------3---------|-----------------|-------2----------|
    B||-----3-------3---|-----3-------3---|-----1---3-1-----|-----3-------3----|
    G|4o--0-------0-----|---0-------0-----|---0---------0---|---2-------2-----o|
    D|4o5-------5-------|-4-------4-----⁄-|-2---------------|-0-------0-------o|
    A||-----------------|-----------------|-----------------|------------------|
    E||-----------------|-----------------|-----------------|------------------|
    
    
    Verse 2x:
    
    Gadd? Gadd? C D
    e||-------3---------|-------3---------|-----------------|-------2----------|
    B||-----3-------3---|-----3-------3---|-----1---3-1-----|-----3-------3----|
    G|4o--0-------0----o|o--0-------0----o|o--0---------0--o|---2-------2-----o|
    D|4o5-------5------o|o4-------4------o|o2--------------o|-0-------0-------o|
    A||-----------------|-----------------|(3)-second time--|------------------|
    E||-----------------|-----------------|-----------------|------------------|
    
    Chorus:
    
    e||-----------------|-----------------|-----------------|------------------e
    B||This electric guitar starts on the 4th beat of the last bar of verse 1--l
    G|4-----------------|-----------------|-----------------|------------------e
    D|4-----------------|-----------------|-----------------|-------------2⁄⁄⁄-c
    A||-----------------|-----------------|-----------------|------------------t
    E||-----------------|-----------------|-----------------|------------------r
    
    e||-----------------|-----------------|-----------------|------------------e
    B||-----------------|-----------------|-----------------|------------------l
    G|4o----------------|-----------------|-----------------|-----------------oe
    D|4o----------------|-----------------|-----------------|-----------------oc
    A||-0---------------|-------------0-2-|-3---------------|-2-3-3-2-0--------t
    E||-----------------|-----------------|-----------------|-------------3----r
    || |
    || Am7 Am7 CaddG CaddG G D |
    e||---------0-------|---------0-------|---------3-------|---------3---2----a
    B||-----------1-----|-----------1-----|-----------1-----|---------3---3----c
    G|4o----0-------0---|-----0-------0---|-----0-------0---|-----0-------2---oc
    D|4o--2-------------|---2-------------|---2-------------|---2-------------oo
    A||-0---------------|-0---------------|-3---------------|-3----------------u
    E||-----------------|-----------------|-----------------|------------------s
    
    e||-----------------|-----------------|-----------------|------------------e
    B||-----------------|-----------------|-----------------|------------------l
    G|4o----------------|-----------------|-----------------|---------hpp-----oe
    D|4o------------7⁄--|-----------------|-------------0-2-|-3-------2320----oc
    A||-0---------------|-0-----------0-2-|-3---------------|-------------3----t
    E||-----------------|-----------------|-----------------|------------------r
    || |
    || Am7 Am7 CaddG CaddG G D |
    e||---------0-------|---------0-------|---------3-------|---------3---2----a
    B||-----------1-----|-----------1-----|-----------1-----|---------3---3----c
    G|4o----0-------0---|-----0-------0---|-----0-------0---|-----0-------2---oc
    D|4o--2-------------|---2-------------|---2-------------|---2-------------oo
    A||-0---------------|-0---------------|-3---------------|-3----------------u
    E||-----------------|-----------------|-----------------|------------------s
    
    Solo (over Intro):
    
    e||-------------------------r---------|-------------------------r----------|
    B||-12~-----------------(13)-12-10----|-12~-----------------(13)-12-10-----|
    G|4or---------------------------------|------------------------------------|
    D|4oa---------------------------------|------------------------------------|
    A||-k---------------------------------|------------------------------------|
    E||-e---------------------------------|------------------------------------|
    
    e||---b-------------------------------|b-----------------------------------|
    B||-12-(13)~----------------------(12)|-13--12--12⁄-10--10⁄-8---8/--10-----|
    G|4-----------------------------------|-----------------------------------o|
    D|4-----------------------------------|-----------------------------------o|
    A||-----------------------------------|------------------------------------|
    E||-----------------------------------|------------------------------------|
    
    e||-----------------------------------|
    B||-8~--------------------------------|
    G|4-----------------------------------|
    D|4-----------------------------------|
    A||-----------------------------------|
    E||-----------------------------------|
    
    Bridge:
    
    F C Bb F
    e||---------1-------|---------3-------|---------1-------|---------1--------|
    B||-----------1-----|-----------5-----|-----------3-----|-----------1------|
    G|4o------------2--o|o----5-------5--o|o----3-------3--o|o------------2---o|
    D|4o----3----------o|o--5------------o|o--3------------o|o----3-----------o|
    A||---3-------------|-3---------------|-1---------------|---3--------------|
    E||-1---------------|-----------------|-----------------|-1----------------|
    
    G C
    e||---------3-------|-0---------------|-----------------|------------------|
    B||-----------3-----|-1---------------|-----------------|------------------|
    G|4o------------0--o|-0-Strum this chord many times, adding a D------------|
    D|4o----0----------o|-2-(3rd fret) on the B string occasionally------------|
    A||---2-------------|-3---------------|-----------------|------------------|
    E||-3---------------|-----------------|-----------------|------------------|
    

    Тональность:

    Нет текста!



    Назад
    Рекомендуем посмотреть другие песни исполнителя «Nazareth»:

    • Комментарии Facebook ()
    • Комментарии ВКонтакте



    Добавить в Избранное Браузера
    Сохранить здесь Очистить


    x

    0


    +
    -

    +
    -

    -

    Авторизация





    Зарегистрироваться

    M

    Дата и время

    • 17:18:01
       

    Социальные ссылки


    Наши приложения

    • Muzbank App Play Market
    • Muzbank Amazon App