MUZBANK



A Most Complete Bank Of Music Information

МУЗЫКАЛЬНО-ИНФОРМАЦИОННЫЙ БАНК

Поиск по сайту







    NNerf Herder • Buffy The Vampire Slayer (аккорды и текст - chords & lyrics)


    301

    Print

    Видео «Buffy The Vampire Slayer (Nerf Herder)»

    Видео клипы к песне подбираются автоматически сайтом youtube. Возможны некоторые несоответствия клипов песне.

    ↑ Спрятать рекламу ↑



    Download



     
    
    
    BUFFY THEME
    BY Nerf Herder
    tabed:alan mcintyre
    EMAIL:ozzyismadsayi@?hotmail.com
    
    this is quite a fast song
    but the bass line is pretty stedy.
    
    riff 1 2X
    
    G|---------------------------------------------------------
    D|---------------------------------------------------------
    A|7-7-7-7-7-7-7-7--9-9-9-9-9-9-9-9--14-14-14-14-14-14-14-14 >
    E|---------------------------------------------------------
    
    RIFF 1 CONTINUED
    
    G|-------------------------
    D|-------------------------
    A|-17-17-17-17-17-17-17-17-
    E|-------------------------
    
    
    RIFF 2 1X
    
    G|---------------5------------------
    D|-----------5H7---7-5-------5------
    A|-7-7-7-7-7-----------5-5H7---7-5--
    E|---------------------------------7
    
    RIFF 1 1X
    
    RIFF 3
    
    G|------------
    D|---2--------
    A|-------2----
    E|----------0R
    
    KEY
    
    H=HAMMER SLOWLY
    R=LET RING (TILL SONG ENDS)
    THATS IT
     

    Тональность:

    Нет текста!



    Назад
    Рекомендуем посмотреть другие песни исполнителя «Nerf Herder»:

    • Комментарии Facebook ()
    • Комментарии ВКонтакте



    Добавить в Избранное Браузера
    Сохранить здесь Очистить


    x

    0


    +
    -

    +
    -

    -

    Авторизация





    Зарегистрироваться

    M

    Дата и время

    • 23:38:48
       

    Социальные ссылки


    Наши приложения

    • Muzbank App Play Market
    • Muzbank Amazon App