MUZBANK



A Most Complete Bank Of Music Information

МУЗЫКАЛЬНО-ИНФОРМАЦИОННЫЙ БАНК

Поиск по сайту







    NNew Found Glory • Something I Call Personality (аккорды и текст - chords & lyrics)


    249

    Print

    Видео «Something I Call Personality (New Found Glory)»

    Видео клипы к песне подбираются автоматически сайтом youtube. Возможны некоторые несоответствия клипов песне.

    ↑ Спрятать рекламу ↑



    Download


     
    
    
    Song: Something I Call Personality
    Artist: New Found Glory
    Album: Sticks and Stones
    Tabbed by: Christian / silent_warrior_@hotmail.com
    
    Tuning: Standard (E A D G B E)
    
    PM - Palm mute
    x - Mute string
    / - Slide up
    
    
    Intro
    |------------------------------|
    |------------------------------|
    |-----1-2------2------2------2-| x1
    |-2-4---2--4-2-2--2---2--2-4-2-|
    |-------0------0----2-0------0-|
    |------------------------------|
    
    
    |------------------------|     |-----------|
    |------------------------|     |-----------|
    |-----2------2------2----| x1  |-----------| x1
    |-4-6-2--4-2-2--2---2--2-|     |-x-x-x-x-x-|
    |-----0------0----2-0----|     |-x-x-x-x-x-|
    |------------------------|     |-x-x-x-x-x-|
    
    
    |----------------------------|     |-----------|
    |----------------------------|     |-----------|
    |-----2------2------2------2-| x2  |-----------| x1
    |-4-6-2--4-2-2--2---2--2-4-2-|     |-x-x-x-x-x-|
    |-----0------0----2-0------0-|     |-x-x-x-x-x-|
    |----------------------------|     |-x-x-x-x-x-|
    
    
    Verse
    |----------------------------------------------|
    |----------------------------------------------|
    |----------------------------------------------| x1
    |-7-2--5-7--9-7--5-7--7-2--5-7--9-7--7-7-7-7-7-|
    |-7-2--5-7--9-7--5-7--7-2--5-7--9-7--7-7-7-7-7-|
    |-5-0--3-5--7-5--3-5--5-0--3-5--7-5--5-5-5-5-5-|
    PM                                     - - - -
    
    
    |------------------------------------------------------------------|
    |------------------------------------------------------------------|
    |------------------------------------------------------------------| x1
    |-7-2-2-2-2--5-7-7-7-7--9-7-7-7-7--5-7-7-7-7--7-2-2-2-2--5-7-7-7-7-|
    |-7-2-2-2-2--5-7-7-7-7--9-7-7-7-7--5-7-7-7-7--7-2-2-2-2--5-7-7-7-7-|
    |-5-0-0-0-0--3-5-5-5-5--7-5-5-5-5--3-5-5-5-5--5-0-0-0-0--3-5-5-5-5-|
    PM    - - -      - - -      - - -      - - -      - - -      - - -
    
    
    Fill
    |--------------|
    |-2-2-2--4-4-4-|
    |-2-2-2--4-4-4-| x1
    |-2-2-2--4-4-4-|
    |-0-0-0--2-2-2-|
    |--------------|
    
    
    Chorus
    |-----------------------------------------------------------------|
    |-----------------------------------------6-6-6-6-5-5-5-5-6-6-6-6-|
    |-----------------6-6-6-6---------2-2-2-2-6-6-6-6-5-5-5-5-6-6-6-6-| x2
    |-2-2-2-2-5-5-5-5-6-6-6-6-4-4-4-4-2-2-2-2-6-6-6-6-5-5-5-5-6-6-6-6-|
    |-2-2-2-2-5-5-5-5-4-4-4-4-4-4-4-4-0-0-0-0-4-4-4-4-3-3-3-3-4-4-4-4-|
    |-0-0-0-0-3-3-3-3---------2-2-2-2---------------------------------|
    
    
    |------------------------------|
    |------------------------------|
    |-----1-2------2------2------2-| x1
    |-2-4---2--4-2-2--2---2--2-4-2-|
    |-------0------0----2-0------0-|
    |------------------------------|
    
    
    |------------------------|     |-----------|
    |------------------------|     |-----------|
    |-----2------2------2----| x1  |-----------| x1
    |-4-6-2--4-2-2--2---2--2-|     |-x-x-x-x-x-|
    |-----0------0----2-0----|     |-x-x-x-x-x-|
    |------------------------|     |-x-x-x-x-x-|
    
    
    |----------------------------|     |-----------|
    |----------------------------|     |-----------|
    |-----2------2------2------2-| x2  |-----------| x1
    |-4-6-2--4-2-2--2---2--2-4-2-|     |-x-x-x-x-x-|
    |-----0------0----2-0------0-|     |-x-x-x-x-x-|
    |----------------------------|     |-x-x-x-x-x-|
    
    
    Verse
    |----------------------------------------------|
    |----------------------------------------------|
    |----------------------------------------------| x1
    |-7-2--5-7--9-7--5-7--7-2--5-7--9-7--7-7-7-7-7-|
    |-7-2--5-7--9-7--5-7--7-2--5-7--9-7--7-7-7-7-7-|
    |-5-0--3-5--7-5--3-5--5-0--3-5--7-5--5-5-5-5-5-|
    PM                                     - - - -
    
    
    |------------------------------------------------------------------|
    |------------------------------------------------------------------|
    |------------------------------------------------------------------| x1
    |-7-2-2-2-2--5-7-7-7-7--9-7-7-7-7--5-7-7-7-7--7-2-2-2-2--5-7-7-7-7-|
    |-7-2-2-2-2--5-7-7-7-7--9-7-7-7-7--5-7-7-7-7--7-2-2-2-2--5-7-7-7-7-|
    |-5-0-0-0-0--3-5-5-5-5--7-5-5-5-5--3-5-5-5-5--5-0-0-0-0--3-5-5-5-5-|
    PM    - - -      - - -      - - -      - - -      - - -      - - -
    
    
    Fill
    |--------------|
    |-2-2-2--4-4-4-|
    |-2-2-2--4-4-4-| x1
    |-2-2-2--4-4-4-|
    |-0-0-0--2-2-2-|
    |--------------|
    
    
    Chorus
    |-----------------------------------------------------------------|
    |-----------------------------------------6-6-6-6-5-5-5-5-6-6-6-6-|
    |-----------------6-6-6-6---------2-2-2-2-6-6-6-6-5-5-5-5-6-6-6-6-| x4
    |-2-2-2-2-5-5-5-5-6-6-6-6-4-4-4-4-2-2-2-2-6-6-6-6-5-5-5-5-6-6-6-6-|
    |-2-2-2-2-5-5-5-5-4-4-4-4-4-4-4-4-0-0-0-0-4-4-4-4-3-3-3-3-4-4-4-4-|
    |-0-0-0-0-3-3-3-3---------2-2-2-2---------------------------------|
    
    
    Bridge
    |---------------------|
    |---------------------|
    |-5-5-----------------| x1
    |-5-5--2--------------|
    |-3-3----2----2/7---2-|
    |---------------------|
    
    
    |------------------------------------------|
    |------------------------------------------|
    |---------------------2-4-4-4-4--4-2-2-2-2-| x1
    |-2-2-2-2--5-7-7-7-7--2-4-4-4-4--4-2-2-2-2-|
    |-2-2-2-2--5-7-7-7-7--0-2-2-2-2--2-0-0-0-0-|
    |-0-0-0-0--3-5-5-5-5-----------------------|
    PM  - - -      - - -      - - -      - - -
    
    
    |--------------------------------------------|
    |--------------------------------------------|
    |-----------------------2-4-4-4-4--4-2-2-2-2-|x3
    |-7-2-2-2-2--5-7-7-7-7--2-4-4-4-4--4-2-2-2-2-|
    |-7-2-2-2-2--5-7-7-7-7--0-2-2-2-2--2-0-0-0-0-|
    |-5-0-0-0-0--3-5-5-5-5-----------------------|
    PM    - - -      - - -      - - -      - - -
    
    
    Chorus
    |-----------------------------------------------------------------|
    |-----------------------------------------6-6-6-6-5-5-5-5-6-6-6-6-|
    |-----------------6-6-6-6---------2-2-2-2-6-6-6-6-5-5-5-5-6-6-6-6-| x4
    |-2-2-2-2-5-5-5-5-6-6-6-6-4-4-4-4-2-2-2-2-6-6-6-6-5-5-5-5-6-6-6-6-|
    |-2-2-2-2-5-5-5-5-4-4-4-4-4-4-4-4-0-0-0-0-4-4-4-4-3-3-3-3-4-4-4-4-|
    |-0-0-0-0-3-3-3-3---------2-2-2-2---------------------------------|
    
    
    Outro
    |------------------------------|
    |------------------------------|
    |-----1-2------2------2------2-| x1
    |-2-4---2--4-2-2--2---2--2-4-2-|
    |-------0------0----2-0------0-|
    |------------------------------|
    
    
    |------------------------|     |-----------|
    |------------------------|     |-----------|
    |-----2------2------2----| x1  |-----------| x1
    |-4-6-2--4-2-2--2---2--2-|     |-x-x-x-x-x-|
    |-----0------0----2-0----|     |-x-x-x-x-x-|
    |------------------------|     |-x-x-x-x-x-|
    
    
    |----------------------------|     |---------------|
    |----------------------------|     |---------------|
    |-----2------2------2------2-| x2  |-----------4---| x1
    |-4-6-2--4-2-2--2---2--2-4-2-|     |-x-x-x-x-x-4-2-|
    |-----0------0----2-0------0-|     |-x-x-x-x-x-2-2-|
    |----------------------------|     |-x-x-x-x-x---0-|
     

    Тональность:

    Нет текста!



    Назад
    Рекомендуем посмотреть другие песни исполнителя «New Found Glory»:

    • Комментарии Facebook ()
    • Комментарии ВКонтакте



    Добавить в Избранное Браузера
    Сохранить здесь Очистить


    x

    0


    +
    -

    +
    -

    -

    Авторизация





    Зарегистрироваться

    M

    Дата и время

    • 15:04:17
       

    Социальные ссылки


    Наши приложения

    • Muzbank App Play Market
    • Muzbank Amazon App