MUZBANK



A Most Complete Bank Of Music Information

МУЗЫКАЛЬНО-ИНФОРМАЦИОННЫЙ БАНК








    NNickelback • Someday (аккорды и текст - chords & lyrics)


    257

    Print

    Видео «Someday (Nickelback)»

    Видео клипы к песне подбираются автоматически сайтом youtube. Возможны некоторые несоответствия клипов песне.

    ↑ Спрятать рекламу ↑






     
    
    
    -------------------------------------------------------------------------------
    			     Nickelback- Someday
    -------------------------------------------------------------------------------
    Tabbed by:doughboy2787
    Email:lemony_fresh87@hotmail.com
    Tuning: dadgbe    Drop D
    
    Verse: 2x one guitar, then 2x both guitars
    
    e|--2--2-22---5--5-55---0--0-00---0--0-00---------------------------|
    B|--3--3-33---7--7-77---0--0-00---3--3-33---------------------------|
    G|--4--4-44---7--7-77---2--2-22---2--2-22---------------------------|
    D|--4--4-44-------------2--2-22---0--0-00---------------------------|
    A|--2--2-22---5--5-55---0--0-00-------------------------------------|
    E|------------------------------------------------------------------|
    
    Guitar 2: verse begins after first 2
    e|---------------------------------------------------------------------------|
    B|--0-6-3-5-0-6-3-5---3-2----------------------------------------------------|
    G|------------------2-----2--------------------------------------------------|
    D|---------------------------------------------------------------------------|
    A|---------------------------------------------------------------------------|
    E|---------------------------------------------------------------------------|
    
    Bridge: both guitars
    e|---------------------------------------------------------------------------|
    B|---------------------------------------------------------------------------|
    G|---------------------------------------------------------------------------|
    D|--22222222------77777777---------------------------------------------------|
    A|--22222222------77777777---------------------------------------------------|
    E|--22222222------77777777---------------------------------------------------|
    
    Chorus: 2x both guitars
    
    e|---------------------------------------------------------------------------|
    B|---------------------------------------------------------------------------|
    G|---------------------------------------------------------------------------|
    D|--5555--0000--7777- 2222-----5555--7777--9999--7777------------------------|
    A|--5555--0000--7777--2222-----5555--7777--9999--7777------------------------|
    E|--5555--0000--7777--2222-----5555--7777--9999--7777------------------------|
    
    Verse: 2x one guitar, then 2x both guitars
    
    e|--2--2-22---5--5-55---0--0-00---0--0-00---------------------------|
    B|--3--3-33---7--7-77---0--0-00---3--3-33---------------------------|
    G|--4--4-44---7--7-77---2--2-22---2--2-22---------------------------|
    D|--4--4-44-------------2--2-22---0--0-00---------------------------|
    A|--2--2-22---5--5-55---0--0-00-------------------------------------|
    E|------------------------------------------------------------------|
    
    Guitar 2:verse begins after first 2
    e|---------------------------------------------------------------------------|
    B|--0-6-3-5-0-6-3-5---3-2----------------------------------------------------|
    G|------------------2-----2--------------------------------------------------|
    D|---------------------------------------------------------------------------|
    A|---------------------------------------------------------------------------|
    E|---------------------------------------------------------------------------|
    
    Bridge
    e|---------------------------------------------------------------------------|
    B|---------------------------------------------------------------------------|
    G|---------------------------------------------------------------------------|
    D|--22222222------77777777---------------------------------------------------|
    A|--22222222------77777777---------------------------------------------------|
    E|--22222222------77777777---------------------------------------------------|
    
    Chorus: 2x
    
    e|---------------------------------------------------------------------------|
    B|---------------------------------------------------------------------------|
    G|---------------------------------------------------------------------------|
    D|--5555--0000--7777- 2222-----5555--7777--9999--7777------------------------|
    A|--5555--0000--7777--2222-----5555--7777--9999--7777------------------------|
    E|--5555--0000--7777--2222-----5555--7777--9999--7777------------------------|
    
    1st Solo: Guitar 1
    e|----------------------------------------------------------------------------|
    B|----------------0------------------0----------------------0--2-3-----2-3----|
    G|-----4 

    Тональность:

    Нашли ошибку?



    Назад
    Рекомендуем посмотреть другие песни исполнителя «Nickelback»:

    • Комменты Fb ()
    • Комменты ВК



    Добавить в Избранное Браузера
    Сохранить здесь Очистить


    x

    0


    +
    -

    +
    -

    -

    Авторизация





    Зарегистрироваться

    M

    Дата и время

    • 04:36:59
       

    Социальные ссылки


    Наши приложения

    • Muzbank App Play Market
    • Muzbank Amazon App