MUZBANK



A Most Complete Bank Of Music Information

МУЗЫКАЛЬНО-ИНФОРМАЦИОННЫЙ БАНК

Поиск по сайту







    NNine Inch Nails • La Mer (аккорды и текст - chords & lyrics)


    294

    Print

    Видео «La Mer (Nine Inch Nails)»

    Видео клипы к песне подбираются автоматически сайтом youtube. Возможны некоторые несоответствия клипов песне.

    ↑ Спрятать рекламу ↑



    Download



     
    
    
    Band: Nine Inch Nails
    Album: The Fragile/And All That Could Have Been
    Song: La Mer
    Tuning: Standard
    Tabbed by: Stishiroth
    Email: stishiroth@yahoo.com.au
    
    This is based on the live version from And All That Could Have Been.
    
    The Intro gets played by some other 4 string instrument on AATCHB 
    (its played by a piano on The Fragile version), i tabbed it out 
    for bass just for the hell of it.
    
    ~ = let it ring
    h = hammer on
    
    
    Intro;
    G|--14-17-17-16--
    D|---------------
    A|---------------
    E|--------------- x1
    
    G|--15-15-16-16-----------16----
    D|--------------17-17---17--17--
    A|------------------------------
    E|------------------------------ x1
    
    G|-----------------10-----
    D|-16~17~17~16~15~---11-10
    A|------------------------
    E|------------------------ x1
    
    G|--16~--15-15-14-14-16~-17~---17--
    D|--------------------------17~--17
    A|---------------------------------
    E|--------------------------------- x1
    
    G|------------------10------
    D|-15~-15-16-17-15~---11-10~
    A|--------------------------
    E|-------------------------- x1
    
    G|--14-17-17-16--
    D|---------------
    A|---------------
    E|--------------- x1
    
    G|--15-15-16-16~------16-15--------
    D|----------------15~-------15-15--
    A|---------------------------------
    E|--------------------------------- x1
    
    G|--------16-17----17---
    D|--15-16-------16~--16~
    A|----------------------
    E|---------------------- x1
    
    G|--14-17-17-16--
    D|---------------
    A|---------------
    E|--------------- x1
    
    G|--15-15-16-15-------------------------
    D|--------------14~---14~---13~---12~---
    A|--------------------------------------
    E|-------------------------------------- x1
    
    G|--17-----------
    D|----16~--------
    A|---------------
    E|--------------- x18
    
    
    Main Riff; (play this until the end)
    G|---------------
    D|---------------
    A|---9-10---3----
    E|-9------9------ 
    
    G|---------------
    D|---------------
    A|-----10-11-----
    E|-9h10----------
     

    Тональность:

    Нет текста!



    Назад
    Рекомендуем посмотреть другие песни исполнителя «Nine Inch Nails»:

    • Комментарии Facebook ()
    • Комментарии ВКонтакте



    Добавить в Избранное Браузера
    Сохранить здесь Очистить


    x

    0


    +
    -

    +
    -

    -

    Авторизация





    Зарегистрироваться

    M

    Дата и время

    • 07:06:57
       

    Социальные ссылки


    Наши приложения

    • Muzbank App Play Market
    • Muzbank Amazon App