MUZBANK



A Most Complete Bank Of Music Information

МУЗЫКАЛЬНО-ИНФОРМАЦИОННЫЙ БАНК

Поиск по сайту







    NNine Inch Nails • The Mark Has Been Made (аккорды и текст - chords & lyrics)


    311

    Print

    Видео «The Mark Has Been Made (Nine Inch Nails)»

    Видео клипы к песне подбираются автоматически сайтом youtube. Возможны некоторые несоответствия клипов песне.

    ↑ Спрятать рекламу ↑



    Download


     
    
    
    The Mark Has Been Made
    written by Trent Reznor
    as performed on The Fragile
    tab by Rafael Aguilar
    
    
    e|---------------------------------|
    B|---------------------------------|
    G|---------------------------------|
    D|----7b-7b-5-4~-----7b---7b-5-4---| 6 times
    A|--5--------------5----5----------|
    E|---------------------------------|
    
       Then
    
    e|---------------------------------------|
    B|---------------------------------------|
    G|---------------------------------------|
    D|---------------------------------------| 3 times
    A|--5-4-0-3-2---------5-4-0-3-2----------|
    E|------------3-0-3-4-----------3-0-3-1--|
    
    
       Then
      (with wah pedal)
    e|------------------------------------------|
    B|------------------------------------------|
    G|---------x-x---------x-x----x----x-x--x---|
    D|---------x-x---------x-x----x----x-x--x---| a couple of times
    A|-5-8b-8b-x-x-5-8b-8b-x-x-8b-x-8b-x-x--x---|
    E|------------------------------------------|
    
    
    this riff is played behind the one above
    i think the third time into it although im not really
    sure.
    e|-----------------------------------|
    B|-----------------------------------|
    G|--7/6--6/5--5/4--3-2---------------|
    D|--7/6--6/5--5/4--3-2---------------|
    A|--5/4--4/3--3/2--1-0---------------|
    E|-----------------------------------|
    
    End
    e|---------------------------------------|
    B|---------------------------------------|
    G|---------------------------------------|
    D|-12--12--11--11--10--10--9--9----------| 3 times (i think)
    A|---------------------------------------|
    E|---------------------------------------|
     

    Тональность:

    Нет текста!



    Назад
    Рекомендуем посмотреть другие песни исполнителя «Nine Inch Nails»:

    • Комментарии Facebook ()
    • Комментарии ВКонтакте



    Добавить в Избранное Браузера
    Сохранить здесь Очистить


    x

    0


    +
    -

    +
    -

    -

    Авторизация





    Зарегистрироваться

    M

    Дата и время

    • 05:06:18
       

    Социальные ссылки


    Наши приложения

    • Muzbank App Play Market
    • Muzbank Amazon App