MUZBANK



A Most Complete Bank Of Music Information

МУЗЫКАЛЬНО-ИНФОРМАЦИОННЫЙ БАНК

Поиск по сайту







    NNirvana • Milk It (аккорды и текст - chords & lyrics)


    359

    Print

    Видео «Milk It (Nirvana)»

    Видео клипы к песне подбираются автоматически сайтом youtube. Возможны некоторые несоответствия клипов песне.

    ↑ Спрятать рекламу ↑



    Download



    Intro:
    
    Guitar 1
    
    1|-12--------11---5-x-x-x-7-----------------------|
    2|---11-12-10----5---------6-7/9-------8-6/7------|
    3|--------9---------------------6-8-5-4-----7/6-8-|
    4|-------------9----------------------------------|
    5|--------------0---------------------------------|
    6|------------------------------------------------|
    
    Guitar 2
    
    1|-7--5-------------7-7-7-7/9-6--4-----------10-11-16dontpick--|
    2|---6---7-6-5-4-3-----------8--5-5/0-rake--9------------------|
    3|--5---6---------4/----------------------------------/x-------|
    4|-----7------------------------------------------8---/x-------|
    5|-----------------------------0-------------------------------|
    6|-------------------------------------------------------------|
    
    Chorus:
    
    1|---------------------------------|
    2|-------9-9-----------------------|
    3|-------9-9-----------------------|
    4|-------9-9-----------------------|
    5|-8-8-8-7-7-5-5---5-5-5-6-6-2-2-2-|
    6|-6-6-6-----3-3-0-3-3-3-4-4-0-0-0-|
    
    Bridge:
    
    1|-----------------8----------------3-|
    2|---5-5------------------------------|
    3|--------------8-8----------------2--|
    4|---------------7--------------------|
    5|-1----3-3---------------------------|
    6|--0---6--6-6-0----6-6-6-6-6-6-6-0---|
    
    1|----------------------3-|
    2|------------------------|
    3|---------------------2--|
    4|------------------------|
    5|------------------------|
    6|-6-6-6-6-6-6-6-0-0-0----|
    
    Verse:
    
    6|-6-6-6-6-6-6-6-6-0-0-0-0-0-|
    
    
    
    
    I am my own parasite
    I don't need a host to live
    We feed off of each other
    We can share our endorphins
    
    Doll steak, test meat
    
    I own my own pet virus
    I get to pet and name her
    Her milk is my shit
    My shit is her milk
    
    Doll steak, test meat
    
    Look on the bright side is suicide
    Lost eyesight I'm on your side
    Angel left wing, right wing, broken wing
    Lack of iron and/or sleeping
    Protector of the kennel
    Ecto-plasma
    Ecto-skeletal
    Obituary birthday
    Your scent is still here in my place of recovery!

    Тональность:

    Нет текста!



    Назад
    Рекомендуем посмотреть другие песни исполнителя «Nirvana»:

    • Комментарии Facebook ()
    • Комментарии ВКонтакте



    Добавить в Избранное Браузера
    Сохранить здесь Очистить


    x

    0


    +
    -

    +
    -

    -

    Авторизация





    Зарегистрироваться

    M

    Дата и время

    • 23:30:02
       

    Социальные ссылки


    Наши приложения

    • Muzbank App Play Market
    • Muzbank Amazon App