MUZBANK



A Most Complete Bank Of Music Information

МУЗЫКАЛЬНО-ИНФОРМАЦИОННЫЙ БАНК

Поиск по сайту







    NNirvana • Smells Like Teen Spirit (аккорды и текст - chords & lyrics)


    342

    Print

    Видео «Smells Like Teen Spirit (Nirvana)»

    Видео клипы к песне подбираются автоматически сайтом youtube. Возможны некоторые несоответствия клипов песне.

    ↑ Спрятать рекламу ↑



    Download



     
    
    
    Song: Smells Like Teen Spirit
    Artist: Nirvana
    Tabbed By: Ash_2608@hotmail.com
    Tuning: Standard
    
    x=muted
    /=slide
    ^=bend
    =slide
    
    BASS GUITAR (play throughout song)
    G|---------------------------------|
    D|---------------------------------|
    A|---------1-1-1-0---------4-4-4-0-|
    E|-1-1-1-1---------4-4-4-4---------|
    
    INTRO part 1 [guitar 1]
    e|-----------------------------------|
    B|-----------------------------------|
    G|------------3-33--------------6-66-|
    D|-3-33-xx-xx-3-33---6-66-xx-xx-6-66-|
    A|-3-33-xx-xx-1-11-0-6-66-xx-xx-4-44-|
    E|-1-11-xx-xx-1-11-0-4-44-xx-xx-4-44-|
    
    e|--------------------------|
    B|--------------------------|
    G|--------------3-33--------|
    D|---3-33-xx-xx-3-33---6-66-|
    A|-0-3-33-xx-xx-1-11-0-6-66-|
    E|-0-1-11-xx-xx-1-11-0-4-44-|
    
    INTRO part 2 [guitar 2] (played with heavy distortion)
    e|--------------------------------------------------|
    B|--------------------------------------------------|
    G|-------6--6--------------3--3--------------6--6---|
    D|-xx-xx-6--6---3-33-xx-xx-3--3---6-66-xx-xx-6--6---|
    A|-xx-xx-4--4-0-3-33-xx-xx-1--1-0-6-66-xx-xx-4--4-0-|
    E|-xx-xx-4--4-0-1-11-xx-xx-1--1-0-4-44-xx-xx-4--4-0-|
    
    e|----------------------------------------------------|
    B|----------------------------------------------------|
    G|-------6--6--------------3--3--------------66-66-66-|
    D|-xx-xx-6--6---3-33-xx-xx-3--3---6-66-xx-xx-66-66-66-|
    A|-xx-xx-4--4-0-3-33-xx-xx-1--1-0-6-66-xx-xx-44-44-44-|
    E|-xx-xx-4--4-0-1-11-xx-xx-1--1-0-4-44-xx-xx-44-44-44-|
    
    VERSE part 1 [guitar 1]
    e|---1---------------------|
    B|-1-----------------------|
    G|-------------------------|
    D|-------------------------|
    A|-------------------------| play x6
    E|-------------------------|
    
    VERSE part 2 [guitar 1]
    e|---1-|
    B|-1---|
    G|-----|
    D|-----|
    A|-----| play x14
    E|-----|
    
    CHORUS part 1 [guitar 2] (played with heavy distortion)
    e|--------------------------------------------------|
    B|--------------------------------------------------|
    G|-------6--6--------------3--3--------------6--6---|
    D|-xx-xx-6--6---3-33-xx-xx-3--3---6-66-xx-xx-6--6---|
    A|-xx-xx-4--4-0-3-33-xx-xx-1--1-0-6-66-xx-xx-4--4-0-| play x6
    E|-xx-xx-4--4-0-1-11-xx-xx-1--1-0-4-44-xx-xx-4--4-0-|
    
    CHORUS part 2 [guitar 2] (played with heavy distortion)
    e|----------------------|
    B|----------------------|
    G|-----------3^-----4-3-|
    D|-3-3/4-4-4----3-3-4-3-|
    A|-3-3/4-4-4----3-3-2-1-| play x2
    E|-1-1/2-2-2----1-1-----|
    
    VERSE [guitar 1]
    
    CHORUS [guitar 2] (played with heavy distortion)
    
    SOLO [guitar 1] (played with distortion and reverb)
    
    e|---------------------------------------|
    B|---------------------------------------|
    G|----8-108---8-8^-6-5-6-5--------------|
    D|-10--------6--------------8-6-8-8^-6-5-|
    A|---------------------------------------| play x2
    E|---------------------------------------|
    
    e|-----------------------------------------|
    B|-----------------------------------------|
    G|-----------------------------------------|
    D|-6-5-6-5-6-5-6p5-53-6-5-6-5-6-5-6p5-53-|
    A|-----------------------------------------| play x2
    E|-----------------------------------------|
    
    VERSE part 2 [guitar 1]
    
    CHORUS part 1 [guitar 2]
    
    OUTRO [guitar 2] (played with heavy distortion)
    e|-------------------|
    B|-------------------|
    G|-------------------|
    D|-3-----------------|
    A|-3-----------------|
    E|-1-----------------|
     

    Тональность:

    Нет текста!



    Назад
    Рекомендуем посмотреть другие песни исполнителя «Nirvana»:

    • Комментарии Facebook ()
    • Комментарии ВКонтакте



    Добавить в Избранное Браузера
    Сохранить здесь Очистить


    x

    0


    +
    -

    +
    -

    -

    Авторизация





    Зарегистрироваться

    M

    Дата и время

    • 03:38:28
       

    Социальные ссылки


    Наши приложения

    • Muzbank App Play Market
    • Muzbank Amazon App