MUZBANK



A Most Complete Bank Of Music Information

МУЗЫКАЛЬНО-ИНФОРМАЦИОННЫЙ БАНК

Поиск по сайту







    NNirvana • Stain (аккорды и текст - chords & lyrics)


    255

    Print

    Видео «Stain (Nirvana)»

    Видео клипы к песне подбираются автоматически сайтом youtube. Возможны некоторые несоответствия клипов песне.

    ↑ Спрятать рекламу ↑



    Download



     
    
    
    Artist: Nirvana
    Song: Stain
    Album: Incesticide
    
    Drop D
    
    Intro:
    
    e---------|
    B---------|
    G---------|
    D--0---1--|
    A--0---1--|
    D--0---1--|
    
    Verse:
    
    e-----------------|
    B-----------------|
    G-----------------|
    D--2-2-x-1-1-2-2--|
    A--2-2-x-1-1-2-2--|
    D--2-2-x-1-1-2-2--|
    
    Chorus:
    
    e---------------------------|
    B---------------------------|
    G---------------------------|
    D--8-x-7-7-0-0-0-0-0-0-0-0--|
    A--8-x-7-7-0-0-0-0-0-0-0-0--|
    D--8-x-7-7-0-0-0-0-0-0-0-0--|
     

    Тональность:

    Нет текста!



    Назад
    Рекомендуем посмотреть другие песни исполнителя «Nirvana»:

    • Комментарии Facebook ()
    • Комментарии ВКонтакте



    Добавить в Избранное Браузера
    Сохранить здесь Очистить


    x

    0


    +
    -

    +
    -

    -

    Авторизация





    Зарегистрироваться

    M

    Дата и время

    • 05:19:51
       

    Социальные ссылки


    Наши приложения

    • Muzbank App Play Market
    • Muzbank Amazon App