MUZBANK



A Most Complete Bank Of Music Information

МУЗЫКАЛЬНО-ИНФОРМАЦИОННЫЙ БАНК

Поиск по сайту







    NNo Doubt • No Doubt (аккорды и текст - chords & lyrics)


    329

    Print

    Видео «No Doubt (No Doubt)»

    Видео клипы к песне подбираются автоматически сайтом youtube. Возможны некоторые несоответствия клипов песне.

    ↑ Спрятать рекламу ↑



    Download


     
    
    
    No Doubt - No Doubt
    
    
    (unreleased)
    Transcribed by Dikran Chekian 
    www.geocities.com/SunsetStrip/Stage/9232 [SUNPIST GROOVES]
    
    
    intro
    -----------|-----------|-----------------|
    ---3-4-3---|---3-4-6-4-|---3-4-6-4-3-----|
    -5-------5-|-5---------|-5-----------5/0-|
    -----------|-----------|-----------------|
    -----------|-----------|-----------------|
    -----------|-----------|-----------------|
    
    
    everything is writen in order once through only.
    after the first verse you will have to go back 
    to the top and repeat (more or less)
    
    
     d u u u   d u d   
    -3-3-3-3-|-3-3-6-|
    -4-4-4-4-|-4-4-7-|
    -5-5-5-5-|-5-5-8-|X2
    -5-------|-5---8-|
    -3-------|-3---6-|
    ---------|-------|
    
    
    -3-3-3-3-|-6-6-6-6-|-3-3-3-3-|-1/3-3-3-3-|
    -4-4-4-4-|-7-7-7-7-|-4-4-4-4-|-2/4-4-4-4-|
    -5-5-5-5-|-8-8-8-8-|-5-5-5-5-|-3/5-5-5-5-|
    -5-------|-8-------|-5-------|-3/5-------|
    -3-------|-6-------|-3-------|-1/3-------|
    ---------|---------|---------|------------|
    
    
    -6-6-6-6-|--9--9---9--9-|-6-6-6-6-|-4/6-6-6-6-|
    -7-7-7-7-|-10--10-10-10-|-7-7-7-7-|-5/7-7-7-7-|
    -8-8-8-8-|-11--11-11-11-|-8-8-8-8-|-6/8-8-8-8-|
    -8-------|-11-----------|-8-------|-6/8-------|
    -6-------|--9-----------|-6-------|-4/6-------|
    ---------|--------------|---------|-----------|
    
    
    ||  -1-|    -3-|    -3-3-3-3-|-1/3-3-3-3-|  || 
    ||  -1-|    -3-|    -4-4-4-4-|-2/4-4-4-4-|  ||
    ||  -1-|X6  -3-|X6  -5-5-5-5-|-3/5-5-5-5-|  ||(repeat everything within
    ||  -3-|    -5-|    -5-------|-3/5-------|  ||       the double bars X2)
    ||  -3-|    -5-|    -3-------|-1/3-------|  ||
    ||  -1-|    -3-|    ---------|-----------|  ||
    
    
    -3-3-3-3-|--------
    -4-4-4-4-|---------
    -5-5-5-5-|--------
    -5-------|------
    -3-------|---------
    ---------|---------
    
    
    -3-3-3-3-|-2-2-2-2-|-1-1-1-1-|-2-2-2-2-|
    -4-4-4-4-|-3-3-3-3-|-2-2-2-2-|-3-3-3-3-|
    -5-5-5-5-|-4-4-4-4-|-3-3-3-3-|-4-4-4-4-|X2
    -5-------|-4-------|-3-------|-4-------|
    -3-------|-2-------|-1-------|-2-------|
    ---------|---------|---------|---------|
     

    Тональность:

    Нет текста!



    Назад
    Рекомендуем посмотреть другие песни исполнителя «No Doubt»:

    • Комментарии Facebook ()
    • Комментарии ВКонтакте



    Добавить в Избранное Браузера
    Сохранить здесь Очистить


    x

    0


    +
    -

    +
    -

    -

    Авторизация





    Зарегистрироваться

    M

    Дата и время

    • 09:11:36
       

    Социальные ссылки


    Наши приложения

    • Muzbank App Play Market
    • Muzbank Amazon App