MUZBANK



A Most Complete Bank Of Music Information

МУЗЫКАЛЬНО-ИНФОРМАЦИОННЫЙ БАНК

Поиск по сайту







    NNo Use For A Name • Dont Miss The Train (аккорды и текст - chords & lyrics)


    301

    Print

    Видео «Dont Miss The Train (No Use For A Name)»

    Видео клипы к песне подбираются автоматически сайтом youtube. Возможны некоторые несоответствия клипов песне.

    ↑ Спрятать рекламу ↑



    Download


     
    
    
    Song: Don`t miss the train
    By: No use for a name
    Album: don`t miss the train
    Tabbed By: Carlos Pino
    
    
    
    G-|---------------------------------------------------------------------------|
    D-|----------------------------------------------------------------------------
    A-|---------------------------------------------------------------------------|
    E-|-5-X-X-8 /10-13-12-8- 8- 8- 5-X-X-8/ 10-13-15-15-15-|-5-X-X-8 /10-13-12-8- |
    
    G-|---------------------------------------------------------------------------|
    D-|---------------------------------------------------------------------------|
    A-|---------------------------------------------------------------------------|
    E-|-8- 8- 5-X-X-8 /10-13-12-15-15-15-5-X-X-8/ 10-13-12-8- 8- 8- 5-X-X-8 /10---|
    
    G-|---------------------------------------------------------------------------|
    D-|---------------------------------------------------------------------------|
    A-|---------------------------------------------------------------------------|
    E-|-12-8- 8- 8- 5-X-X-8 /10-13-12-15-15-15-5-X-X-8/ 10-13-12-8- 8- 8----------|
    
    
    G-|---------------------------------------------------------------------------|
    D-|---------------------------------------------------------------------------|
    A-|---------------------------------------------------------------------------|
    E-|-8- 8- X-X-5-X-X-5-13-12-15-15-15-X-X-5-X-X-5-13-12-8- 8- 8- X-X-5-X-X-5-13|
    
    G-|---------------------------------------------------------------------------|
    D-|---------------------------------------------------------------------------|
    A-|---------------------------------------------------------------------------|
    E-|-12-15-15-15---------------------------------------------------------------|
    
    G-|---------------------------------------------------------------------------|
    D-|---------------------------------------------------------------------------|
    A-|---------------------------------------------------------------------------|
    E-|-X-X-5-X-X-5-X-X-3-X-X-3-X-X-5-X-X-5-X-X-8- X-X-8- X-X-5-X-X-5-X-X-3-X-X-3-|
    
    G-|---------------------------------------------------------------------------|
    D-|---------------------------------------------------------------------------|
    A-|---------------------------------------------------------------------------|
    E-|-1-1-1-1/8- 8- 8- 5-5-5|-X-X-5-X-X-5-X-X-3-X-X-3-X-X-5-X-X-5-X-X-8- X-X-8- |
    
    G-|------------------------------------------------|--------------------------|
    D-|---------------------------------------------------------------------------|
    A-|---------------------------------------------------------------------------|
    E-|-X-X-5-X-X-5-X-X-3-X-X-3-1-1-1-1/8- 8- 8- 5-5-5-|-5-5-5/6-6-6/8- 8- 8/ 10--|
    
    G-|---------------------------------------------------------------------------|
    D-|------------------------------------------------------------------------------
    A-|---------------------------------------------------------------------------|
    E-|-10-10-10-10-5-5-5/6-6-6/8- 8- 8/ 10-10-10-10-10-5-X-X-X-X-1-1-1/8- 8- 8- -|
    
    G-|---------------------------------------------------------------------------|
    D-|-------------------------------------------------------------------------------
    A-|---------------------------------------------------------------------------|
    E-|-13-12-15-15-15-5-X-X-8/ 10-13-12-8- 8- 8- 5-X-X-8/ 10-13-12-15-15-15------|
    
    G-|---------------------------------------------------------------------------|
    D-|---------------------------------------------------------------------------|
    A-|---------------------------------------------------------------------------|
    E-|-X-X-5-X-X-5-X-X-3-X-X-3-X-X-5-X-X-5-X-X-8- X-X-8- X-X-5-X-X-5-X-X-3-X-X-3-|
    
    G-|-----------------------|---------------------------------------------------|
    D-|---------------------------------------------------------------------------|
    A-|----------------------------------------------------------------------------
    E-|-1-1-1-1/8- 8- 8- 5-5-5|-X-X-5-X-X-5-X-X-3-X-X-3-X-X-5-X-X-5-X-X-8- X-X-8- |
    
    G-|---------------------------------------------------------------------------|
    D-|---------------------------------------------------------------------------|
    A-|----------------------------------------------------------------------------
    E-|-X-X-5-X-X-5-X-X-3-X-X-3-1-1-1-1/8- 8- 8- 5-5-5-|-5-5-5/6-6-6/8- 8- 8/ 10--|
    
    G-|---------------------------------------------------------------------------|
    D-|---------------------------------------------------------------------------|
    A-|---------------------------------------------------------------------------|
    E-|-10-10-10-10-5-5-5/6-6-6/8- 8- 8/ 10-10-10-10-10-5-X-X-X-X-1-1-1/8- 8- 8- -|
    
    G-|---------------------------------------------------------------------------|
    D-|---------------------------------------------------------------------------|
    A-|---------------------------------------------------------------------------|
    E-|-X-X-5-X-X-5-X-X-3-X-X-3-X-X-5-X-X-5-X-X-8- X-X-8- X-X-5-X-X-5-X-X-3-X-X-3-|
    
    G-|---------------------------------------------------------------------------|
    D-|---------------------------------------------------------------------------|
    A-|---------------------------------------------------------------------------|
    E-|-1-1-1-1/8- 8- 8- 5-5-5|-X-X-5-X-X-5-X-X-3-X-X-3-X-X-5-X-X-5-X-X-8- X-X-8- |
    
    G-|---------------------------------------------------------------------------|
    D-|----------------------------------------------------------------------------
    A-|---------------------------------------------------------------------------|
    E-|-X-X-5-X-X-5-X-X-3-X-X-3-1-1-1-1/8- 8- 8- 5-5-5-|-5-5-5/6-6-6/8- 8- 8/ 10--|
    
    G-|---------------------------------------------------------------------------|
    D-|---------------------------------------------------------------------------|
    A-|---------------------------------------------------------------------------|
    E-|-10-10-10-10-5-5-5/6-6-6/8- 8- 8/ 10-10-10-10-10-5-X-X-X-X-1-1-1/8- 8- 8- -|
    
    G-|---------------------------------------------------------------------------|
    D-|---------------------------------------------------------------------------|
    A-|---------------------------------------------------------------------------|
    E-|-13-12-15-15-15-5-X-X-8/ 10-13-12-8- 8- 8- 5-X-X-8/ 10-13-12-15-15-15------|
    
    G-|---------------------------------------------------------------------------|
    D-|---------------------------------------------------------------------------|
    A-|---------------------------------------------------------------------------|
    E-|-5-5-X-5--5-5--------------------------------------------------------------|
     

    Тональность:

    Нет текста!



    Назад
    Рекомендуем посмотреть другие песни исполнителя «No Use For A Name»:

    • Комментарии Facebook ()
    • Комментарии ВКонтакте



    Добавить в Избранное Браузера
    Сохранить здесь Очистить


    x

    0


    +
    -

    +
    -

    -

    Авторизация





    Зарегистрироваться

    M

    Дата и время

    • 21:27:56
       

    Социальные ссылки


    Наши приложения

    • Muzbank App Play Market
    • Muzbank Amazon App