MUZBANK



A Most Complete Bank Of Music Information

МУЗЫКАЛЬНО-ИНФОРМАЦИОННЫЙ БАНК

Поиск по сайту







    NNoFX • Jaundiced Eye (аккорды и текст - chords & lyrics)


    160

    Print

    Видео «Jaundiced Eye (NoFX)»

    Видео клипы к песне подбираются автоматически сайтом youtube. Возможны некоторые несоответствия клипов песне.

    ↑ Спрятать рекламу ↑



    Download


     
    
    
    ------------------------------------
    JAUNDICED EYE / NOFX
    ------------------------------------
    
    By: Carlos Pino
    
    G-|--------------------------------------------------------------------------------------------
    D-|--------------------------------------------------------------------------------------------
    A-|--------------------------------------------------------------------------------------------
    E-|--8-5-5-5-5-5-5-5--8-5-5-5-5-5-5-5--8-5-5-5-5-5-5-5--8-5-5-5-5-5-5-5-
    
    G-|-----------------------------------------------------------------------------------------------------
    D-|-----------------------------------------------------------------------------------------------------
    A-|-7-5-7--8-10--8-10-12-7-5-7--8-10--8-7-7-5-7--8-10--8-10-12-7-5-7-10--8-7-
    E-|-----------------------------------------------------------------------------------------------------
    
    G-|----------------------------------------------------------------------------------------------------
    D-|----------------------------------------------------------------------------------------------------
    A-|-7-5-7--8-10--8-10-12-7-5-7--8-10--8-7-7-5-7--8-10--8-10-12-7-5-7--8--8--8
    E-|-----------------------------------------------------------------------------------------------------
    
    G-|-------------------------------------------------------------------------------------------
    D-|-------------------------------------------------------------------------------------------
    A-|----------------5-5-3----------------5-5-3---------------5-5-3----------------5-5-3-
    E-|--8-5-5-5-5----------8-5-5-5-5----------8-5-5-5-5----------8-5-5-5-5---------
    
    G-|-------------------------------------------------------------------------------------------
    D-|-------------------------------------------------------------------------------------------
    A--|-10--8-7--8-7-5-------------------------10--8--7--8-7--5------------------------
    E-|------------------------8-5-5-5-5-5-5-5--------------------------8-5-5-5-5-5-5-5
    
    G-|-------------------------------------------------------------------------------------------
    D-|-------------------------------------------------------------------------------------------
    A-|-10--8--7--8--7-5-------------------------10--8--7--8-7-5--8--7--8--7-5------
    E-|------------------------8--5-5-5-5-5-5-5-----------------------------------------8---
    
    G-|-----------------------------------------------------------------------------------------------
    D-|-----------------------------------------------------------------------------------------------
    A-|------------------5-5-3------------------5-5-3-------------------5-5-3--8-7---8-7-5--
    E-|--8--5-5-5-5------------8-5-5-5-5-----------8-5-5-5-5------------------------------8
    
    G-|----------------------------|
    D-|----------------------------|
    A-|---------------4-------------|
    E-|-5--5--5--5---------------|
    
    G-|--------------------------------------------------------------------
    D-|--------------------------------------------------------------------
    A-|------------------------4--------------------------------------4--
    E-|-7-7-7-7-7-7-7-7------------------7-7-7-7-7-7-7-7------
    
    G-|----------------------------------------------------------------
    D-|----------------------------------------------------------------
    A-|-----------------------4------------------------------------4-
    E-|-7-7-7-7-7-7-7-7------------------7-7-7-7-7-7-7-7--
    
    G-|------------------------------------------------------------------------------------------------
    D-|------------------------------------------------------------------------------------------------
    A-|-3-3-3-3--------------8--8--8--8-----5-5-5-5----------------------3-3-3-3-5-5-5-5-
    E-|------------5-5-5-5-------------------------------5-5-5-5-5-5-5-5-----------------------
    
    G-|--------------------------------------------------------------------------------
    D-|---------------------------------------------------------------------------------
    A-|-3-3--8--8--8--8--8--8--8--8------------12-10-------10--8--------10-
    E-|-------------------------------------------5-5----------5-5----------5-5-----
    
    G-|-------------------------------|
    D-|-------------------------------|
    A-|---------------4--------------|
    E-|-5--5--5--5-----------------|
    
    G-|--------------------------------------------------------------------
    D-|--------------------------------------------------------------------
    A-|----------------------4--------------------------------------4----
    E-|-7-7-7-7-7-7-7-7------------------7-7-7-7-7-7-7-7------
    
    G-|-------------------------------------------------------------------
    D-|--------------------------------------------------------------------
    A-|--------------------------4------------------------------------4--
    E-|-7-7-7-7-7-7-7-7------------------7-7-7-7-7-7-7-7------
    
    G-|--------------------------------------------------------
    D-|--------------------------------------------------------
    A-|-3-3--8-7--8---5-3--5-7---7-3-5--8--8--8--8-
    E-|--------------------------------------------------------
    
    G-|-----------------------------------------------------------------------------------------------
    D-|------------------------------------------------------------------------------------------------
    A-|-3-3-3-3-------------8--8--8--8----5-5-5-5-----------------------3-3-3-3-5-5-5-5-
    E-|------------5-5-5-5------------------------------5-5-5-5-5-5-5-5-----------------------
    
    G-|----------------------------------------------------------------------------------------------------------
    D-|----------------------------------------------------------------------------------------------------------
    A-|-3-3--8--8--8--8-----------12-10-------10--8-------10------12-10--------10--8--------10-
    E-|-------------------------5-5----------5-5-----------5-5-----5-5----------5-5------------5-5------
    
    G-|----------------------------------------------|
    D-|----------------------------------------------|
    A-|--8--7--8--7-5-3--8-7--8--7--5--3----|
    E-|-------------------------------------------5-|
     

    Тональность:

    Нет текста!



    Назад
    Рекомендуем посмотреть другие песни исполнителя «NoFX»:

    • Комментарии Facebook ()
    • Комментарии ВКонтакте



    Добавить в Избранное Браузера
    Сохранить здесь Очистить


    x

    0


    +
    -

    +
    -

    -

    Авторизация





    Зарегистрироваться

    M

    Дата и время

    • 13:04:04
       

    Социальные ссылки


    Наши приложения

    • Muzbank App Play Market
    • Muzbank Amazon App