MUZBANK



A Most Complete Bank Of Music Information

МУЗЫКАЛЬНО-ИНФОРМАЦИОННЫЙ БАНК

Поиск по сайту







    NNonpoint • Hive (аккорды и текст - chords & lyrics)


    262

    Print

    Видео «Hive (Nonpoint)»

    Видео клипы к песне подбираются автоматически сайтом youtube. Возможны некоторые несоответствия клипов песне.

    ↑ Спрятать рекламу ↑



    Download


     
    
    
    Nonpoint-Hive
    Tuning:C,G,C,F,A,D
    ------------------|---------------|-------------------|-------|
    ------------------|---------------|-------------------|-------|
    ------------------|---------------|-----------------3-|-3-----|
    -1-00-01-00-01010-|-1-00-01-00-02-|-20--002---02-02-3-|-3-2-0-|
    -1-00-01-00-01010-|-1-00-01-00-02-|-20--002---02-02-1-|-1-2-0-|
    -1-00-01-00-01010-|-1-00-01-00-02-|-20--002---02-02---|---2-0-|
                                       know you relieze!
    
    ------------------|------------|------------|---------------|--------|
    ------------------|------------|------------|---------------|--------|
    ------------------|------------|------------|---------------|--------|
    -1-00-01-00-01010-|-555555-----|-6-666-55-3-|-0-565-3-4-3-5-|-3-0-3-0|
    -1-00-01-00-01010-|------------|-6-666-55-3-|-0-565-3-4-3-5-|-3-0-3-0|
    -1-00-01-00-01010-|------------|-6-666-55-3-|-0-565-3-4-3-5-|-3-0-3-0|
                                     gO!     Funky feeling part       Here we go.
    
    ------------------|-35/3535353-0--3/5/3/5/3/5/3-8-3----|
    ------------------|-------------------------------------------|
    ------------------|-------------------------------------------|
    -0-00-565-343-353-|-------------------------------------------|
    -0-00-565-343-353-|-------------------------------------------|
    -0-00-565-343-353-|-------------------------------------------|
     

    Тональность:

    Нет текста!



    Назад
    Рекомендуем посмотреть другие песни исполнителя «Nonpoint»:

    • Комментарии Facebook ()
    • Комментарии ВКонтакте



    Добавить в Избранное Браузера
    Сохранить здесь Очистить


    x

    0


    +
    -

    +
    -

    -

    Авторизация





    Зарегистрироваться

    M

    Дата и время

    • 04:59:59
       

    Социальные ссылки


    Наши приложения

    • Muzbank App Play Market
    • Muzbank Amazon App