MUZBANK



A Most Complete Bank Of Music Information

МУЗЫКАЛЬНО-ИНФОРМАЦИОННЫЙ БАНК

Поиск по сайту







    NNonpoint • Orgullo (аккорды и текст - chords & lyrics)


    306

    Print

    Видео «Orgullo (Nonpoint)»

    Видео клипы к песне подбираются автоматически сайтом youtube. Возможны некоторые несоответствия клипов песне.

    ↑ Спрятать рекламу ↑



    Download


     
    
    
    Author/Artist: Nonpoint
    Title: Orgullo
    Album: statement
    
    
    
    tuning 
    C G C F A D
    
    -101010/13-13-13/101010/15-15-15-15/101010/13-13-13/101010/17-17-17-17----------
    -x-x-x-/x--x--x-/x-x-x-/x--x--x--x/x-x-x-/x--x--x-/x-x-x-/x--x--x--x------------
    -7-7-7-/10-10-10/7-7-7-/12-12-12-12/7-7-7-/10-10-10/7-7-7-/14-14-14-14----------
    ------------------------------------------------------------------------------
    ------------------------------------------------------------------------------
    ------------------------------------------------------------------------------
    play fast with lots of distortion
    
    ------------------------------------------------------------------------------
    ------------------------------------------------------------------------------
    ------------------------------------------------------------------------------
    -000-333-000-555--000-333-000-66-6--------------------------------------------
    -000-333-000-555--000-333-000-66-6--------------------------------------------
    -000-333-000-555--000-333-000-66-6--------------------------------------------
                                                                                  
    
    -----------------------------------|------------------------------------------
    -----------------------------------|------------------------------------------
    -----------------------------------|------------------------------------------
    -00-33-00-333/555--00-33-00-555/666|-0-3-0-555--0-3-0-66-6-6-6----------------
    -00-33-00-333/555--00-33-00-555/666|-0-3-0-555--0-3-0-66-6-6-6----------------
    -00-33-00-333/555--00-33-00-555/666|-0-3-0-555--0-3-0-66-6-6-6----------------
     pm    pm          pm    pm                             PM....                
    
    -----------------------|----|-------------------------------------------------
    -----------------------|----|-------------------------------------------------
    -----------------------|----|-------------------------------------------------
    -----------------------|0000|-0000---000---0000---000-------------------------
    ------5----5-----5----6|0000|-0000-5-000-5-0000-5-000-6-----------------------
    -0000--000--0000--000--|0000|-0000---000---0000---000-------------------------
     do this twice          pm..                                                  
    
    -----------------|-----|------------------------------------------------------
    -----------------|-----|------------------------------------------------------
    -----------------|-----|------------------------------------------------------
    -0000-3-0-00-3-0-|-0000|--0-3-0---0-3-0--0-3-0--------------------------------
    -0000-3-0-00-3-0-|-0000|--0-3-0---0-3-0--0-3-0--------------------------------
    -0000-3-0-00-3-0-|-0000|--0-3-0---0-3-0--0-3-0--------------------------------
     pm       pm       pm..                                                       
    
    ------------------------------------------------------------------------------
    ------------------------------------------------------------------------------
    ------------------------------------------------------------------------------
    -000-5-0--320-00-5-0-320------------------------------------------------------
    -000-5-0--320-00-5-0-320------------------------------------------------------
    -000-5-0--320-00-5-0-320------------------------------------------------------
     listen to get this part                                                      
    
    ------------------------------------------------------------------------------
    ------------------------------------------------------------------------------
    ------------------------------------------------------------------------------
    -5-00-3p0-000-----------------------------------------------------------------
    -5-00-3p0-000-----------------------------------------------------------------
    -5-00-3p0-000-----------------------------------------------------------------
             pm..                                                                 
    
    Ok hers the tab to Nonpoint 

    Тональность:

    Нет текста!



    Назад
    Рекомендуем посмотреть другие песни исполнителя «Nonpoint»:

    • Комментарии Facebook ()
    • Комментарии ВКонтакте



    Добавить в Избранное Браузера
    Сохранить здесь Очистить


    x

    0


    +
    -

    +
    -

    -

    Авторизация





    Зарегистрироваться

    M

    Дата и время

    • 04:23:40
       

    Социальные ссылки


    Наши приложения

    • Muzbank App Play Market
    • Muzbank Amazon App