MUZBANK



A Most Complete Bank Of Music Information

МУЗЫКАЛЬНО-ИНФОРМАЦИОННЫЙ БАНК

Поиск по сайту







    NNonpoint • What A Day (аккорды и текст - chords & lyrics)


    299

    Print

    Видео «What A Day (Nonpoint)»

    Видео клипы к песне подбираются автоматически сайтом youtube. Возможны некоторые несоответствия клипов песне.

    ↑ Спрятать рекламу ↑



    Download



     
    
    
    Nonpoint - What A Day
    Tuning - C-G-C-F-A-D
    tabbed by Emilio (emiliograveran@hotmail.com
    
    (clean with flanger)
    |---------------------------------------------------------------------|
    |---------------------------------------------------------------------|
    |---------------------------------------------------------------------|
    |------------10-------------------12---------------10-----------------| 
    |-----10/12---------12b14r12----------------10/12---------10----------|
    |--0-------------0-------------0------0-0--------------0-------11-----|
    
    |---------------------------------------------------------------------|
    |---------------------------------------------------------------------|
    |---------------------------------------------------------------------|
    |-------------10-------------------12-------------10------------------| 
    |------10/12---------12b14r12--------------10/12-----------10---------|
    |-0-0------------0-------------0------0-0-------------0---------------|
    
    (with distortion)
    |---------------------------------------------------------------------|
    |---------------------------------------------------------------------|
    |---------------------------------------------------------------------|
    |-----------10b12-------------------12-------------10b12--------------| 
    |----10/12------------12b14r12--------------10/12-------------10------|
    |--0---------------0-------------0------0-0---------------0-------11--|
    
    |---------------------------------------------------------------------|
    |---------------------------------------------------------------------|
    |---------------------------------------------------------------------|
    |------------10b12-------------------12-------------10b12-------------| 
    |-----10/12------------12b14r12--------------10/12---------11--x8-----|
    |-0-0---------------0-------------0------0-0--------------------------|
    
    (with distortion)
    |---------------------------------------------------------------------|
    |---------------------------------------------------------------------|
    |---------------------------------------------------------------------|
    |-8-7-0-7--10-10-10-10-7-12---8-7-0-3-5-5-5-5-3-----------------------| 
    |-8-7-0-7--10-10-10-10-7-12---8-7-0-3-5-5-5-5-3-----------------------|
    |-8-7-0-7--10-10-10-10-7-12---8-7-0-3-5-5-5-5-3-----------------------|
    
    |---------------------------------------------------------------------|
    |---------------------------------------------------------------------|
    |---------------------------------------------------------------------|
    |-8-7-0-7--10-10-10-10-7-12---8-7-0-3/5-53---------------------------| 
    |-8-7-0-7--10-10-10-10-7-12---8-7-0-3/5-53---------------------------|
    |-8-7-0-7--10-10-10-10-7-12---8-7-0-3/5-53---------------------------|
    
    |---------------------------------------------------------------------|
    |---------------------------------------------------------------------|
    |---------------------------------------------------------------------|
    |-8-7-0-7--10-10-10-10-7-12---8-7-0-3-5-5-5-5-3-----------------------| 
    |-8-7-0-7--10-10-10-10-7-12---8-7-0-3-5-5-5-5-3-----------------------|
    |-8-7-0-7--10-10-10-10-7-12---8-7-0-3-5-5-5-5-3-----------------------|
    |---------------------------------------------------------------------|
    
    |---------------------------------------------------------------------|
    |---------------------------------------------------------------------|
    |-8-7-0-7--10-10-10-10-7-12---8-7-0-7/8-8/10-10-----------------------| 
    |-8-7-0-7--10-10-10-10-7-12---8-7-0-7/8-8/10-10-----------------------|
    |-8-7-0-7--10-10-10-10-7-12---8-7-0-7/8-8/10-10-----------------------|
    
    (with distortion)
    |---------------------------------------------------------------------|
    |---------------------------------------------------------------------|
    |-13--12--------------------------------------------------------------|
    |---------10---5h6-6-6-6p5--------------------------------------------| 
    |-11--10-------5h6-6-6-6p5---x4---------------------------------------|
    |--------------5h6-6-6-6p5--------------------------------------------|
    
    then do 4 short pick scrapes on the low C string (listen to the song)
    
    (clean with flanger)
    |---------------------------------------------------------------------|
    |---------------------------------------------------------------------|
    |---------------------------------------------------------------------|
    |-----10---------------10---------------------------------------------| 
    |---------11---------------11--10---x4--------------------------------|
    |--0----------------0-------------------------------------------------|
    
    |---------------------------------------------------------------------|
    |---------------------------------------------------------------------|
    |---------------------------------------------------------------------|
    |------------10-------------------12---------------10-----------------| 
    |-----10/12---------12b14r12----------------10/12---------10----------|
    |--0-------------0-------------0------0-0--------------0-------11-----|
    
    |---------------------------------------------------------------------|
    |---------------------------------------------------------------------|
    |---------------------------------------------------------------------|
    |-------------10-------------------12-------------10------------------| 
    |------10/12---------12b14r12--------------10/12-----------10---------|
    |-0-0------------0-------------0------0-0-------------0---------------|
    
    (distortion)
    |---------------------------------------------------------------------|
    |---------------------------------------------------------------------|
    |---------------------------------------PH------------PH--------------|
    |-----------10b12---------10b12---------10b12---------10b12-----------| 
    |-----10/12---------10/12--------10/12---------10/12----------11 

    Тональность:

    Нет текста!



    Назад
    Рекомендуем посмотреть другие песни исполнителя «Nonpoint»:

    • Комментарии Facebook ()
    • Комментарии ВКонтакте



    Добавить в Избранное Браузера
    Сохранить здесь Очистить


    x

    0


    +
    -

    +
    -

    -

    Авторизация





    Зарегистрироваться

    M

    Дата и время

    • 07:06:56
       

    Социальные ссылки


    Наши приложения

    • Muzbank App Play Market
    • Muzbank Amazon App