MUZBANK



A Most Complete Bank Of Music Information

МУЗЫКАЛЬНО-ИНФОРМАЦИОННЫЙ БАНК

Поиск по сайту







    NNothingface • All Cut Up (аккорды и текст - chords & lyrics)


    273

    Print

    Видео «All Cut Up (Nothingface)»

    Видео клипы к песне подбираются автоматически сайтом youtube. Возможны некоторые несоответствия клипов песне.

    ↑ Спрятать рекламу ↑



    Download


     
    
    
    Song: All Cut Up
    Artist: Nothingface
    Album: Skeletons
    Tabbed by: Christian / silent_warrior_@hotmail.com
    
    PM - Palm mute
    Triplets - Play notes really fast
    / - Slide up
     - Slide down
    x - Mute notes
    
    
    Tuning: C G C F A D
    
    
    Intro
    |-------------|       |-----------|
    |-------------|       |-----------|
    |-------------| x3    |-----------| x5
    |-32--0--4/6-|       |-1-1-1-1-1-|
    |-32--0--4/6-|       |-1-1-1-1-1-|
    |-32--0--4/6-|       |-1-1-1-1-1-|
    PM     -                - - - - -
    
    
    Intro/Verse
    |----------------------------------------------------------------------|
    |----------------------------------------------------------------------|
    |----------------------------------------------------------------------| x2
    |----------------------------------------------------------------------|
    |----------------------------------------------------------------------|
    |-0-4-7-4-7-4--0-4-7-4-7-4--0-4-7-4--0-4-7-4-7-4--0-4-7-4--0-4-3-0-3-2-|
    
    
    |-------------------|
    |-6-6-10-10--10-11--|
    |-5-5--9--9---9-10--| x2
    |-3-3--7--7---7--8--|
    |-3-3--7--7---7--8--|
    |-3-3--7--7---7--8--|
    
    
    |---------------------|
    |---------------------|
    |---------------------| x1
    |-3-3-3-3-3-3-3-3-3-3-|
    |-3-3-3-3-3-3-3-3-3-3-|
    |-3-3-3-3-3-3-3-3-3-3-|
    PM- - - - - - - - - -
    
    
    Verse
    |---------------------------------------------------------------------|
    |---------------------------------------------------------------------|
    |---------------------------------------------------------------------| x2
    |-0-4-7-4-7-4------------------------0-4-7-4-7-4----------------------|
    |-0-4-7-4-7-4------------------------0-4-7-4-7-4----------------------|
    |-0-4-7-4-7-4--0-4-7-4-7-4--0-4-7-4--0-4-7-4-7-4--0-4-7-4-0-4-3-0-3-2-|
    
    
    Fill
    |-------------|        
    |-------------|        
    |-------------| x1   
    |-32--0--4/6-|        
    |-32--0--4/6-|        
    |-32--0--4/6-|      
    PM     -          
    
    
    Verse
    |----------------------------------------------------------------------|
    |----------------------------------------------------------------------|
    |----------------------------------------------------------------------| x2
    |----------------------------------------------------------------------|
    |----------------------------------------------------------------------|
    |-0-4-7-4-7-4--0-4-7-4-7-4--0-4-7-4--0-4-7-4-7-4--0-4-7-4--0-4-3-0-3-2-| 
    
    
    Fill 1
    |-------------|        
    |-------------|        
    |-------------| x3
    |-32--0--4/6-|        
    |-32--0--4/6-|        
    |-32--0--4/6-|      
    PM     -       
    
    
    Fill 2
    |------------------|
    |-4-4-4-4--3-3-3-3-|
    |-3-3-3-3--3-3-3-3-| x1
    |-1-1-1-1--1-1-1-1-|
    |-1-1-1-1--1-1-1-1-|
    |-1-1-1-1--1-1-1-1-|
    
    
    Chorus (no palm mutes the first time)
    |-----------------------------------------------------------------------------------------------|
    |-----------------------------------------------------------------------------------------------|
    |-----------------------------------------------------------------------------------------------|x2
    |-5/7-7-7-7/8-8-8-8-3-3-3-3-3-3-3-3--5p3-5p3--5/7-7-7-7/8-8-8-8-3-3-3-3-3-3-12-12-12-12-3-3-3-3-|
    |-5/7-7-7-7/8-8-8-8-3-3-3-3-3-3-3-3--5p3-5p3--5/7-7-7-7/8-8-8-8-3-3-3-3-3-3-12-12-12-12-3-3-3-3-|
    |-5/7-7-7-7/8-8-8-8-3-3-3-3-3-3-3-3--5p3-5p3--5/7-7-7-7/8-8-8-8-3-3-3-3-3-3-12-12-12-12-3-3-3-3-|
    PM                                                                             -- -- --   - - -
    
    Fill
    |---------|
    |---------|
    |---------| x1
    |-3-3-3-3-|
    |-3-3-3-3-|
    |-3-3-3-3-|
    
    
    Verse
    |---------------------------------------------------------------------|
    |---------------------------------------------------------------------|
    |---------------------------------------------------------------------| x2
    |-0-4-7-4-7-4------------------------0-4-7-4-7-4----------------------|
    |-0-4-7-4-7-4------------------------0-4-7-4-7-4----------------------|
    |-0-4-7-4-7-4--0-4-7-4-7-4--0-4-7-4--0-4-7-4-7-4--0-4-7-4-0-4-3-0-3-2-|
    
    
    Fill
    |-------------|        
    |-------------|        
    |-------------| x1   
    |-32--0--4/6-|        
    |-32--0--4/6-|        
    |-32--0--4/6-|      
    PM     -          
    
    
    Verse
    |----------------------------------------------------------------------|
    |----------------------------------------------------------------------|
    |----------------------------------------------------------------------| x2
    |----------------------------------------------------------------------|
    |----------------------------------------------------------------------|
    |-0-4-7-4-7-4--0-4-7-4-7-4--0-4-7-4--0-4-7-4-7-4--0-4-7-4--0-4-3-0-3-2-| 
    
    
    Fill 1
    |-------------|        
    |-------------|        
    |-------------| x3
    |-32--0--4/6-|        
    |-32--0--4/6-|        
    |-32--0--4/6-|      
    PM     -       
    
    
    Fill 2
    |------------------|
    |-4-4-4-4--3-3-3-3-|
    |-3-3-3-3--3-3-3-3-| x1
    |-1-1-1-1--1-1-1-1-|
    |-1-1-1-1--1-1-1-1-|
    |-1-1-1-1--1-1-1-1-|
    
    
    Chorus (no palm mutes the first time)
    |-----------------------------------------------------------------------------------------------|
    |-----------------------------------------------------------------------------------------------|
    |-----------------------------------------------------------------------------------------------| x2
    |-5/7-7-7-7/8-8-8-8-3-3-3-3-3-3-3-3--5p3-5p3--5/7-7-7-7/8-8-8-8-3-3-3-3-3-3-12-12-12-12-3-3-3-3-|
    |-5/7-7-7-7/8-8-8-8-3-3-3-3-3-3-3-3--5p3-5p3--5/7-7-7-7/8-8-8-8-3-3-3-3-3-3-12-12-12-12-3-3-3-3-|
    |-5/7-7-7-7/8-8-8-8-3-3-3-3-3-3-3-3--5p3-5p3--5/7-7-7-7/8-8-8-8-3-3-3-3-3-3-12-12-12-12-3-3-3-3-|
    PM                                                                             -- -- --   - - -               
    
    
    Fill
    |---------|
    |---------|
    |---------| x1
    |-3-3-3-3-|
    |-3-3-3-3-|
    |-3-3-3-3-|
    
    
    Bridge - Triplets with effect
    |--------------------------------------------------------|
    |--------------------------------------------------------|
    |--------------------------------------------------------| x2
    |-2-2-2--2-2-2--2-2-2--2-2-2--2-2-2--2-2-2--2-2-2--2-2-2-|
    |-2-2-2--2-2-2--2-2-2--2-2-2--2-2-2--2-2-2--2-2-2--2-2-2-|
    |-2-2-2--2-2-2--2-2-2--2-2-2--2-2-2--2-2-2--2-2-2--2-2-2-|
    PM- - -  - - -  - - -  - - -  - - -  - - -  - - -  - - -
    
    
    |--------------------------------------------------------------|
    |--------------------------------------------------------------|
    |--------------------------------------------------------------| x1
    |-2-2-2-0-2-2-2--2-4-4-4-2-4-4-4--4-6-6-6-4-6-6-6--5-7-7-7-3-3-|
    |-2-2-2-0-2-2-2--2-4-4-4-2-4-4-4--4-6-6-6-4-6-6-6--5-7-7-7-3-3-|
    |-2-2-2-0-2-2-2--2-4-4-4-2-4-4-4--4-6-6-6-4-6-6-6--5-7-7-7-3-3-|
    
    
    The sevens are triplets
    |---------------------------------------------------------------|
    |---------------------------------------------------------------|
    |---------------------------------------------------------------| x4
    |-7-7-7--1-1-1-1-1-1-1-1-1-1--7-7-7--7-7-7--1-1-1-1-1-1-1-1-1-1-|
    |-7-7-7--1-1-1-1-1-1-1-1-1-1--7-7-7--7-7-7--1-1-1-1-1-1-1-1-1-1-|
    |-7-7-7--1-1-1-1-1-1-1-1-1-1--7-7-7--7-7-7--1-1-1-1-1-1-1-1-1-1-|
    PM- - -  - - - - - - - - - -  - - -  - - -  - - - - - - - - - -
    
    
    |--------------------------------------------------------------|
    |--------------------------------------------------------------|
    |--------------------------------------------------------------| x1
    |-2-2-2-0-2-2-2--2-4-4-4-2-4-4-4--4-6-6-6-4-6-6-6--5-7-7-7-3-3-|
    |-2-2-2-0-2-2-2--2-4-4-4-2-4-4-4--4-6-6-6-4-6-6-6--5-7-7-7-3-3-|
    |-2-2-2-0-2-2-2--2-4-4-4-2-4-4-4--4-6-6-6-4-6-6-6--5-7-7-7-3-3-|
    
    
    The zeros are triplets
    |-------------------------------------------------------------|
    |-------------------------------------------------------------|
    |-------------------------------------------------------------| x2
    |-------------------------------------------------------------|
    |-0-0-0----------------------0-0-0--0-0-0---------------------|
    |--------1-1-1-1-1-1-1-1-1-1--------------1-1-1-1-1-1-1-1-1-1-|
    
    
    Fill
    |---------------|
    |---------------|
    |---------------| x1
    |-9-9-9-9-9-9-9-|
    |-7-7-7-7-7-7-7-|
    |-7-7-7-7-7-7-7-|
    PM- - - - - - -
    
    
    |-----------------------------------------------|
    |-----------------------------------------------|
    |-----------------------------------------------| x1
    |-32-0-32-0-32-0-32-0-32-0-32-0-32-0-32-|
    |-32-0-32-0-32-0-32-0-32-0-32-0-32-0-32-|
    |-32-0-32-0-32-0-32-0-32-0-32-0-32-0-32-|
    PM    -     -     -     -     -     -     -
    
    
    |---------------------------------|
    |---------------------------------|
    |---------------------------------| x1
    |-32-0-4/6--32-0-4/6--32-0-4/6-|
    |-32-0-4/6--32-0-4/6--32-0-4/6-|
    |-32-0-4/6--32-0-4/6--32-0-4/6-|
    
    
    Fill
    |------------------|
    |-4-4-4-4--3-3-3-3-|
    |-3-3-3-3--3-3-3-3-| x1
    |-1-1-1-1--1-1-1-1-|
    |-1-1-1-1--1-1-1-1-|
    |-1-1-1-1--1-1-1-1-|
    
    
    Chorus (no palm mutes the first time)
    |-----------------------------------------------------------------------------------------------|
    |-----------------------------------------------------------------------------------------------|
    |-----------------------------------------------------------------------------------------------| x2
    |-5/7-7-7-7/8-8-8-8-3-3-3-3-3-3-3-3--5p3-5p3--5/7-7-7-7/8-8-8-8-3-3-3-3-3-3-12-12-12-12-3-3-3-3-|
    |-5/7-7-7-7/8-8-8-8-3-3-3-3-3-3-3-3--5p3-5p3--5/7-7-7-7/8-8-8-8-3-3-3-3-3-3-12-12-12-12-3-3-3-3-|
    |-5/7-7-7-7/8-8-8-8-3-3-3-3-3-3-3-3--5p3-5p3--5/7-7-7-7/8-8-8-8-3-3-3-3-3-3-12-12-12-12-3-3-3-3-|
    PM                                                                             -- -- --   - - -
    
    
    Fill
    |---------|
    |---------|
    |---------| x1
    |-3-3-3-3-|
    |-3-3-3-3-|
    |-3-3-3-3-|                                                                              
    
    
    
    The sevens are triplets
    |---------------------------------------------------------------|
    |---------------------------------------------------------------|
    |---------------------------------------------------------------| x2
    |-7-7-7--1-1-1-1-1-1-1-1-1-1--7-7-7--7-7-7--1-1-1-1-1-1-1-1-1-1-|
    |-7-7-7--1-1-1-1-1-1-1-1-1-1--7-7-7--7-7-7--1-1-1-1-1-1-1-1-1-1-|
    |-7-7-7--1-1-1-1-1-1-1-1-1-1--7-7-7--7-7-7--1-1-1-1-1-1-1-1-1-1-|
    PM- - -  - - - - - - - - - -  - - -  - - -  - - - - - - - - - -
    
    
    The zeros and sevens are triplets
    |--------------------------------------------------------------------------------------------------------------|
    |--------------------------------------------------------------------------------------------------------------|
    |--------------------------------------------------------------------------------------------------------------|x1
    |-------------------------------------------------------------------1-1-1-1-1-1-1-1-1-1--7-7-7--7-7-7--1-1-1-1-|
    |-0-0-0----------------------0-0-0--0-0-0---------------------0-0-0-1-1-1-1-1-1-1-1-1-1--7-7-7--7-7-7--1-1-1-1-|
    |--------1-1-1-1-1-1-1-1-1-1--------------1-1-1-1-1-1-1-1-1-1-------1-1-1-1-1-1-1-1-1-1--7-7-7--7-7-7--1-1-1-1-|
    PM                                                                  - - - - - - - - - -  - - -  - - -  - - - -
    
    
    |-------------|
    |-------------|
    |-------------|x1
    |-1-x-1-x-1-1-|
    |-1-x-1-x-1-1-|
    |-1-x-1-x-1-1-|
     

    Тональность:

    Нет текста!



    Назад
    Рекомендуем посмотреть другие песни исполнителя «Nothingface»:

    • Комментарии Facebook ()
    • Комментарии ВКонтакте



    Добавить в Избранное Браузера
    Сохранить здесь Очистить


    x

    0


    +
    -

    +
    -

    -

    Авторизация





    Зарегистрироваться

    M

    Дата и время

    • 12:50:20
       

    Социальные ссылки


    Наши приложения

    • Muzbank App Play Market
    • Muzbank Amazon App