MUZBANK



A Most Complete Bank Of Music Information

МУЗЫКАЛЬНО-ИНФОРМАЦИОННЫЙ БАНК

Поиск по сайту







    NNothingface • Defaced (аккорды и текст - chords & lyrics)


    216

    Print

    Видео «Defaced (Nothingface)»

    Видео клипы к песне подбираются автоматически сайтом youtube. Возможны некоторые несоответствия клипов песне.

    ↑ Спрятать рекламу ↑



    Download


     
    
    
    Song: Defaced
    Band: Nothingface
    Album: Pacifier
    Tabbed by: w1crazymofo@hotmail.com
    Tune down 1/2 step Drop D (Db Ab Db Gb Bb Eb)
    
    Intro
    Db|--------------------------------|
    Ab|--------------------------------|
    Db|--------------------------------|
    Gb|-0-3-4-3------------------------|
    Bb|-0-3-4-3------------------------|
    Eb|-0-3-4-3--0-3-0-0-3-0-0-3-0-3-0-|
    PM           . . . . . . . . . . .
    
    Db|-------------------------|
    Ab|-------------------------|
    Db|-------------------------|
    Gb|-0-3-4-3--------60060666-|
    Bb|-0-3-4-3--------60060666-|
    Eb|-0-3-4-3--0-3-0-60060666-|
    PM           . . .  .. .
    
    Db|--------------------------------|
    Ab|--------------------------------|
    Db|--------------------------------|
    Gb|--------------------------------|
    Bb|--------------------------------|
    Eb|-0-3-4-3~-0-3-4-3-0-3-4-3-0-3-4-|
    PM  . . .    . . . . . . . . . . .
    
    Main Riff
    Db|--------------------------------|
    Ab|--------------------------------|
    Db|--------------------------------|
    Gb|-0-3-4-3------------------------|
    Bb|-0-3-4-3------------------------|
    Eb|-0-3-4-3--0-3-4-3-0-3-4-3-0-3-4-|
    PM           . . . . . . . . . . .
    
    Db|-------------------------|
    Ab|-------------------------|
    Db|-------------------------|
    Gb|-0-3-4-3--------60060666-|
    Bb|-0-3-4-3--------60060666-|
    Eb|-0-3-4-3--0-3-4-60060666-|
    PM           . . .  .. .
    
    Db|--------------------------------|
    Ab|--------------------------------|
    Db|--------------------------------|
    Gb|-0-3-4-3--------600600600600666-|
    Bb|-0-3-4-3--------600600600600666-|
    Eb|-0-3-4-3--0-3-4-600600600600666-|
    PM           . . .  .. .. .. ..
    
    Verse
    Db|--------------------|
    Ab|--------------------|
    Db|--------------------|
    Gb|-33333--333444-2--2-|
    Bb|-33333--333444-2--2-|
    Eb|-33333--333444-2--2-|
    PM  ....   ......
    
    Fill
    Db|----|
    Ab|----|
    Db|----|
    Gb|-3-|
    Bb|-3-|
    Eb|-3-|
    
    Bridge
    Db|--------------|---|
    Ab|--------------|---|
    Db|--------------|---|
    Gb|-2-1--6-5-5-3-|-2-|
    Bb|-2-1--6-5-5-3-|-2-|
    Eb|-2-1--6-5-5-3-|-2-|
    
    End on
    Db|---|
    Ab|---|
    Db|---|
    Gb|-2-|
    Bb|-2-|
    Eb|-2-|
     

    Тональность:

    Нет текста!



    Назад
    Рекомендуем посмотреть другие песни исполнителя «Nothingface»:

    • Комментарии Facebook ()
    • Комментарии ВКонтакте



    Добавить в Избранное Браузера
    Сохранить здесь Очистить


    x

    0


    +
    -

    +
    -

    -

    Авторизация





    Зарегистрироваться

    M

    Дата и время

    • 13:22:06
       

    Социальные ссылки


    Наши приложения

    • Muzbank App Play Market
    • Muzbank Amazon App