MUZBANK



A Most Complete Bank Of Music Information

МУЗЫКАЛЬНО-ИНФОРМАЦИОННЫЙ БАНК

Поиск по сайту







    NNothingface • Error In Excellence (аккорды и текст - chords & lyrics)


    234

    Print

    Видео «Error In Excellence (Nothingface)»

    Видео клипы к песне подбираются автоматически сайтом youtube. Возможны некоторые несоответствия клипов песне.

    ↑ Спрятать рекламу ↑



    Download


     
    
    
    Song: ?Error In Excellence?
    Artist: Nothingface
    Album: Everyday Atrocity
    Transcribed By: Bryan Bramlett (bryanmb87@aol.com)
    
    Tuning: 1/2 Step Down, Drop D
    
    INTRO:
    |---------------------------------|
    |---------------------------------|
    |---------------------------------|
    |-0-3-5-5-5-3-3-3-6-6-6-3-3-3-3-5-|
    |-0-3-5-5-5-3-3-3-6-6-6-3-3-3-3-5-|
    |-0-3-5-5-5-3-3-3-6-6-6-3-3-3-3-5-|
    
    FILL
    |-------|
    |-------|
    |-------|
    |-0-3-0-|
    |-0-3-0-|
    |-0-3-0-|
    
    MAIN RIFF:
    |-----------------------------------|    |---------------------|
    |-----------------------------------|play|---------------------|
    |-----------------------------------| 3& |---------------------|
    |-0-0-6-0-0-6-0-0-6-0-6-10-10-10-10-|1/2X|-7-7-7-7-3-3-3-1-0-0-|
    |-0-0-6-0-0-6-0-0-6-0-6-10-10-10-10-|then|-7-7-7-7-3-3-3-1-0-0-|
    |-0-0-6-0-0-6-0-0-6-0-6-10-10-10-10-|    |-7-7-7-7-3-3-3-1-0-0-|
    
    VERSE: (palm mute)
    |-----------------------------------|    |---------------------|
    |-----------------------------------|play|---------------------|
    |-----------------------------------| 3& |---------------------|
    |-----------------------------------|1/2X|---------------------|
    |-----------------------------------|then|---------------------|
    |-0-0-6-0-0-6-0-0-6-0-6-10-10-10-10-|    |-7-7-7-7-3-3-3-1-0-0-|
    
    BRIDGE:
    |------------------------------------------------------|
    |------------------------------------------------------|
    |------------------------------------------------------|
    |-0-3-5--5-3--3-6--6-3--3-3-5---0-3-5--5-3--3-6--6-XXX-|
    |-0-3-5--5-3--3-6--6-3--3-3-5---0-3-5--5-3--3-6--6-XXX-|
    |-0-3-5--5-3--3-6--6-3--3-3-5---0-3-5--5-3--3-6--6-XXX-|
    
    CHORUS:
    |------------------------|    |-------------------------------|
    |------------------------|play|-------------------------------|
    |------------------------| 2X |-------------------------------|
    |-10-12-10-12-0--10-12-0-|then|-10-12-10-12-0--10-12-13131313-|
    |-10-12-10-12-0--10-12-0-|    |-10-12-10-12-0--10-12-13131313-|
    |-10-12-10-12-0--10-12-0-|    |-10-12-10-12-0--10-12-13131313-|
    
    FILL 2:
    |-----------------|
    |-----------------|
    |-----------------|
    |-10-10-10--10-10-|
    |-10-10-10--10-10-|
    |-10-10-10--10-10-|
    
    INTERLUDE:
    |-------------------------------------------------------------|
    |-------------------------------------------------------------|
    |-------------------------------------------------------------|
    |-------------------------------------------------------------|
    |-0-XXXXXXXXXX-7-6-XXXXXXXXXX-7-6-9-XXXXXXXXXX-4-6-XXXXXXXXXX-|
    |-0-XXXXXXXXXX-7-6-XXXXXXXXXX-7-6-9-XXXXXXXXXX-4-6-XXXXXXXXXX-|
    
    INTERLUDE 2:
    |-----------------------------------------------------------|
    |-----------------------------------------------------------|
    |-----------------------------------------------------------|
    |-0-XXXXX-XXX-7-6-XXXXX-XXX-7-6-9-XXXXX-XXX-4-6-XXXXX-XXX-1-|
    |-0-XXXXX-XXX-7-6-XXXXX-XXX-7-6-9-XXXXX-XXX-4-6-XXXXX-XXX-1-|
    |-0-XXXXX-XXX-7-6-XXXXX-XXX-7-6-9-XXXXX-XXX-4-6-XXXXX-XXX-1-|
    
    INTERLUDE:
    |--------------------------------------|
    |--------------------------------------|
    |--------------------------------------|
    |-0-0--0-0--0--13131313--0-0--0-0--0-0-|
    |-0-0--0-0--0--13131313--0-0--0-0--0-0-|
    |-0-0--0-0--0--13131313--0-0--0-0--0-0-|
     

    Тональность:

    Нет текста!



    Назад
    Рекомендуем посмотреть другие песни исполнителя «Nothingface»:

    • Комментарии Facebook ()
    • Комментарии ВКонтакте



    Добавить в Избранное Браузера
    Сохранить здесь Очистить


    x

    0


    +
    -

    +
    -

    -

    Авторизация





    Зарегистрироваться

    M

    Дата и время

    • 07:12:33
       

    Социальные ссылки


    Наши приложения

    • Muzbank App Play Market
    • Muzbank Amazon App