MUZBANK



A Most Complete Bank Of Music Information

МУЗЫКАЛЬНО-ИНФОРМАЦИОННЫЙ БАНК

Поиск по сайту







    NNugent Ted • Stranglehold (аккорды и текст - chords & lyrics)


    331

    Print

    Видео «Stranglehold (Nugent Ted)»

    Видео клипы к песне подбираются автоматически сайтом youtube. Возможны некоторые несоответствия клипов песне.

    ↑ Спрятать рекламу ↑



    Download


    Artist:Ted Nugent
    Song:Stranglehold
    Album:Dazed and Confused
    Tabbed By:Gary Hricewich
    
    Bass Guitar:
    
                              
                                           
     Intro (3x)            Rest(1x)
    G--------------|-----|----------|-----|
    D--------------|-----|----------|-----|
    A--------------|-----|----------|-----|
    E--------------|-3-5-|----------|-3-5-|
                                           
                                                        
     Main Line+ Verse  
    G--------------------------|-----------------------|
    D-----7---7---7---7--------|---7---7---7---7-------|
    A---0---0---0---0---0-3-5--|-0---0---0---0---0-----|
    E--------------------------|-------------------3-5-|
                                                        
                                                       
      After 2nd Verse                             (2x)
    G-------------------------|-----------------------|
    D-------------------------|-----------------------|
    A---------------------0-2-|-----------------------|
    E---0-2-0-2-0-2-0-2-0-----|-0-2-0-2-0-2-0-2-0-2-2-|
                                                       
                                           
     Bridge 
    G-------------------------------------|
    D-------------------------------------|
    A-------------------------------------|
    E---5--5-5-5-5--5-5-5-5--5-5-5--3-3-3-|
                                           
                                                                
     Alternate Line Towards End Of Song  
    G-------------------------|-----------------12-12-12-12-14-|
    D-----7---7---7---7-------|---7---7---7/-14----------------|
    A---0---0---0---0---0-3-5-|-0---0---0----------------------|
    E-------------------------|--------------------------------|
                                                                
                                                                
                                           
                                                                                 
     Riff Before Outro                  Outro------------------------------  End
    G---14-14-14-14-14-14-14-14-12-----|----|---|---|---|---|---|---|---|---|---|
    D------------------------------14-|----|---|---|---|---|---|---|---|---|---|
    A----------------------------------|----|---|---|---|---|---|---|---|---|---|
    E----------------------------------|-5-|-3-|-3-|-3-|-3-|-5-|-5-|-5-|-5-|-5|
     
    
    
    
    
    
    
    
    
    Here I come again now baby
    Like a dog in heat
    Tell it's me by the clamour now baby
    I like to tear up the street
    
    Now I've been smoking for so long
    You know I'm here to stay
    Got you in a stranglehold baby
    You best get out of the way
    
    Road I cruise is a bitch now baby
    You know you can't do me 'round
    If a house gets in my way baby
    You know I'll burn it down
    
    You ran that night that you left me
    You put me in my place
    Got you in a stranglehold now baby
    Then I crushed your face
    
    solo
    
    Sometimes you gonna get higher
    Sometimes you gotta start low
    Some people think they gonna die someday
    I got news you never got to go
    
    Come on come on up; 4 times
    Come on come on come on come on baby
    Come on come on come on come on up
    Come on come on come on come on baby
    Come on come on come on
    
    The road I cruise is a bitch now
    You know you can't do me 'round
    If a house gets in my way
    You know I'll burn it down
    
    You ran that night that you left me
    You put me in my place
    I got you in a stranglehold baby
    Then I crushed your face
    
    
    
    
    
     Intro Rhythm Guitar
    
    |-------------------------------------|-------------------------------|
    |---------10-----10-------------------|-------------------------------|
    |----------9------9---9-----5---5-7-7-|-7p5-------------9---9---------|
    |-5h7------7------7---7-----5---5-7-7-|-7p5-------7-----7---7---0-----|
    |-0---0-0----0-0----0---0-0---0-------|-----0-0-0-0-0-0---0---0-0-5-7-|
    |-------------------------------------|---------------------------3-5-|
     
     
    |----------------------------------------|
    |---------10-----10---10-----------------|
    |----------9------9----9-----5---5-7-7---|
    |-5h7------7------7----7-----5---5-7-7---|
    |-0---0-0----0-0----0----0-0---0---------|
    |----------------------------------------|
     
     
    |------------------(10)-----------------|
    |-----------10------10----10-----12s14\-|
    |-7p5--------9-------9-----9-----12s14\-|
    |-7p5--------7-------7-----7-----12s14\-|
    |-----0-0-0----0-0------0----0----------|
    |------------------------------0--------|
    

    Тональность:

    Нет текста!



    Назад
    Рекомендуем посмотреть другие песни исполнителя «Nugent Ted»:

    • Комментарии Facebook ()
    • Комментарии ВКонтакте



    Добавить в Избранное Браузера
    Сохранить здесь Очистить


    x

    0


    +
    -

    +
    -

    -

    Авторизация





    Зарегистрироваться

    M

    Дата и время

    • 00:24:02
       

    Социальные ссылки


    Наши приложения

    • Muzbank App Play Market
    • Muzbank Amazon App