MUZBANK



A Most Complete Bank Of Music Information

МУЗЫКАЛЬНО-ИНФОРМАЦИОННЫЙ БАНК

Поиск по сайту







    OOasis • A Quick Peep (аккорды и текст - chords & lyrics)


    266

    Print

    Видео «A Quick Peep (Oasis)»

    Видео клипы к песне подбираются автоматически сайтом youtube. Возможны некоторые несоответствия клипов песне.

    ↑ Спрятать рекламу ↑



    Download



    main riff one
    ------------------
    ------------------
    --5--5--5-------3-
    -----------3-5---- play for a while
    
    main riff two
    ------------------------
    --12--12--12---------10-
    --------------10-12-----
    ------------------------ play for a while
    
    lead up one (NOTE: play all notes you see meaning the -5/12-)
    --------------
    -------12-----
    --5/12-----12-
    --------------
    lead up two (NOTE: play all notes you see meaning the -5/12-)
    --------------
    -------10-----
    --5/12-----12-
    --------------
    
    riff one
    ----------------------------
    --12--12--12-11-10-12-11-10-
    ----------------------------
    ----------------------------
    riff two (variation to riff one)
    ----------------------------
    --12--12--12-11-10----------
    -------------------12-11-10-
    ----------------------------
    
    play riff two while going from main riff two to main riff one
    ----------------------------
    --12--12--12-11-10----------
    -------------------12-11-10-
    ----------------------------
    variation
    ---------------------------
    --12--12--12-10------------
    ----------------12-10------
    ----------------------12-8-
    
    during main riff one play lead up one and then back to riff one
    --------------
    -------12-----
    --5/12-----12-
    --------------
    
    play lead up two while going from riff one to riff two
    
    during main riff two play riff one
    
    the end
    ----------------------------------
    --12--12--12-11-10----------------
    -------------------12-11-10-------
    ----------------------------10----
    
    ---------------------------------------
    --12--10-------------------------------
    ----------12--10-----------------------
    ------------------12--8-10--7-8--10----
    variation one
    ---------------------------------------
    --12--10-------------------------------
    ----------12--10-----------------------
    ------------------12--7-8--3-5-/-10----
    variation two
    ----------------------------------------
    --12--10--------------------------------
    ----------12--10------------------------
    ------------------12--0-8b--0-7b--10----
    variation three
    ---------------------------------------
    --12--10-------------------------------
    ----------12--10-----------------------
    ------------------12--0-5b--7-8--10----
    

    Тональность:

    Нет текста!



    Назад
    Рекомендуем посмотреть другие песни исполнителя «Oasis»:

    • Комментарии Facebook ()
    • Комментарии ВКонтакте



    Добавить в Избранное Браузера
    Сохранить здесь Очистить


    x

    0


    +
    -

    +
    -

    -

    Авторизация





    Зарегистрироваться

    M

    Дата и время

    • 11:11:58
       

    Социальные ссылки


    Наши приложения

    • Muzbank App Play Market
    • Muzbank Amazon App