MUZBANK



A Most Complete Bank Of Music Information

МУЗЫКАЛЬНО-ИНФОРМАЦИОННЫЙ БАНК

Поиск по сайту







    OOasis • Acquiesce (аккорды и текст - chords & lyrics)


    232

    Print

    Видео «Acquiesce (Oasis)»

    Видео клипы к песне подбираются автоматически сайтом youtube. Возможны некоторые несоответствия клипов песне.

    ↑ Спрятать рекламу ↑



    Download



     
    
    
    BTAB: Aquiesce 
    Artist: Oasis 
     Album: The Master Plan 
    Author: Rattman (jratt0@hotmail.com) 
      
    Intro/Verse: 
    G----------------- 
    D----------------- 
    A----------------- 
    E-3-5-3-5-0-1-0-3- 
    
    Pre-Chorus: 
    G--------------------------- 
    D--------------------------- 
    A--------------------------- 
    E-0-0-0-0-0-0-0-0-0-0-0-0-0- 
    
    Chorus: 
    G------------------- 
    D------------------- 
    A-------3-3-3-0----- 
    E-1-1-1---------3-3- 
    
    Outro: 
    G------------------------------------------------ 
    D------------------------------------------------ 
    A-3-3-3-3-2-2-2-2-2-0-0-0-0---------------------- 
    E---------------------------3-3-3-3-0-0-0-0-0--3-
     

    Тональность:

    Нет текста!



    Назад
    Рекомендуем посмотреть другие песни исполнителя «Oasis»:

    • Комментарии Facebook ()
    • Комментарии ВКонтакте



    Добавить в Избранное Браузера
    Сохранить здесь Очистить


    x

    0


    +
    -

    +
    -

    -

    Авторизация





    Зарегистрироваться

    M

    Дата и время

    • 21:28:27
       

    Социальные ссылки


    Наши приложения

    • Muzbank App Play Market
    • Muzbank Amazon App