MUZBANK



A Most Complete Bank Of Music Information

МУЗЫКАЛЬНО-ИНФОРМАЦИОННЫЙ БАНК

Поиск по сайту







    OOasis • Bag It Up (аккорды и текст - chords & lyrics)


    432

    Print

    Видео «Bag It Up (Oasis)»

    Видео клипы к песне подбираются автоматически сайтом youtube. Возможны некоторые несоответствия клипов песне.

    ↑ Спрятать рекламу ↑



    Download


    Note: Tune 6th string to D
    
    Intro: [Main Riff]
         C5/D  D5    C5/D  D5     F5 G5        F5 G5  
    E|--|------------------------|------------------------|
    B|--|------------------------|------------------------|
    G|--|5h7---7--5x-5h7---7--7x-|------------------------|
    D|xx|0-0---0--0x-0-0---0--0x-|3s5---5--3x-3s5---5--5x-|
    A|xx|0-0---0--0x-0-0---0--0x-|3s5---5--3x-3s5---5--5x-|
    D|xx|0-0---0--0--0-0---0--0--|3s5---5--3x-3s5---5--5x-|
    
    Verse 1:
    [Main Riff]
    Gold and silver and sunshine is rising up
    Pour yourself another cup of Lady Grey
    Take my hand in the meantime, when you've had enough
           F5                       E5      Eb5
    You'll find me on the end of a runway, babe
    
    Verse 2:
    Tell the world that you love them in a melody
    Send my old piano and a telegram
    Gotta get me a doctor with a remedy
    I'm gonna talk a walk with the Monkey Man!
    
    D5
    
    Bridge:
    Bb      D/A          D5   D/F
    Someone tell me I'm dreaming
        Bb                D/A             D5
    The freaks are rising up through the floor
    
      [Riff]
    E|---|----------------|
    B|-78|78787~----------|
    G|-7-|7-7-7~----------|
    D|---|----------------|
    A|---|----------------|
    D|---|----------------|
         
    Bb   D/A       D5     D/F
    Everything I believe in
       G5                      A5
    Is telling me that I want more, more, more
    
    Chorus:
    A5       C5           D5            C5/D D5
    Lay your love on the fire when you come on in
      A5               C5                  D5   C5/D D5
    I got my hee-bee-jee-bees in a hidden bag
    A5      C5         D5              C5/D D5
    Tell me what you desire and we'll bag it up, 
    Bb5 A5 Ab5 G5 F#5 F5 E5
    high
    
    Instrumental Riff:
    E|5---5---5---5---| [Repeat]
    
    C5/D D5  C5/D D5  |F5  G5   F5  G5   x3
    F5                |E5      Eb5 
    D5
    
    Bridge:
    Someone tell me I'm dreaming
    The freaks are rising up through the floor
    Everything I believe in
    Is telling me that I want more, more, more
    
    Chorus:
    Lay your love on the fire when you come on in
    I got my hee-bee-jee-bees in a hidden bag
    Tell me what you desire and we'll bag it up, high
    
    Shine a light on your fire when you come on in
    I got my hee-bee-jee-bees in a hidden bag
    Tell me what you desire and we'll bag it up, high
    
    Outro:
                       |------X4------|
    E|----------------|----------------|
    B|----------------|----------------|
    G|--------00000000|7--77-----------|
    D|--------00000000|0--00---------xx|
    A|--------00000000|0--00---------xx|
    D|----------------|0--00---------xx| 
    
    E|----------------|
    B|----------------|
    G|7-7-7-7-7-7-7-7-|
    D|0-0-0-0-0-0-0-0-|
    A|0-0-0-0-0-0-0-0-|
    D|0-0-0-0-0-0-0-0-|
    
              F5*      F#5                  
    E|----------------|----------------|
    B|----------------|----------------|
    G|7-7-7-7-7-7-7-7-|7-7-7-7-7-7-7-7-|
    D|0-0-0-0-0-0-0-0-|0-0-0-0-0-0-0-0-|
    A|0-0-0-0-0-0-0-0-|0-0-0-0-0-0-0-0-|
    D|0-0-0-0-0-0-0-0-|0-0-0-0-0-0-0-0-|
              Eb5*     D5*                 X4 [Ending on D5* chord]
    E|----------------|----------------|
    B|----------------|----------------|
    G|7-7-7-7-7-7-7-7-|7-7-7-7-7-7-7-7-|
    D|0-0-0-0-0-0-0-0-|0-0-0-0-0-0-0-0-|
    A|0-0-0-0-0-0-0-0-|0-0-0-0-0-0-0-0-|
    D|0-0-0-0-0-0-0-0-|0-0-0-0-0-0-0-0-|
    
    
    Chords:
    C5/D (0005xx)
    D5 (0007xx)
    F5 (333xxx)
    G5 (555xxx)
    E5 (222xxx)
    Eb5 (111xxx)
    Bb (8x0xxx)
    D/A (7x0xxxx)
    D5* (000xxx)
    D/F (3x0xxx)
    A5 (777xxx)
    C5 (101010xxx)
    Bb5 (888xxx)
    Ab5 (666xxx)
    F#5 (444xxx)
    F5* (x101010xx)
    G5* (x101212xx)
    F5** (x81010xx)
    E5* (x799xx)
    Eb5* (x688xx)
    F#5 (x91111xx)

    Тональность:

    Нет текста!



    Назад
    Рекомендуем посмотреть другие песни исполнителя «Oasis»:

    • Комментарии Facebook ()
    • Комментарии ВКонтакте



    Добавить в Избранное Браузера
    Сохранить здесь Очистить


    x

    0


    +
    -

    +
    -

    -

    Авторизация





    Зарегистрироваться

    M

    Дата и время

    • 23:37:03
       

    Социальные ссылки


    Наши приложения

    • Muzbank App Play Market
    • Muzbank Amazon App