MUZBANK



A MOST COMPLETE BANK OF MUSIC INFORMATION

МУЗЫКАЛЬНО-ИНФОРМАЦИОННЫЙ БАНК







    OOasis • Columbia (аккорды и текст - chords & lyrics)


    281

    Print

    Видео «Columbia (Oasis)»

    Видео клипы к песне подбираются автоматически сайтом youtube. Возможны некоторые несоответствия клипов песне.

    ↑ Спрятать рекламу ↑





    Intro:
    
    A Dsus4 Cadd9sus4 A Dsus4 Cadd9sus4
    B---------------------------------------------------------|
    G-------5h7-7b7-5b5---------------------5h7-7b7-5b5-------|
    D--7-5h7-----------7--7h5----------7-5h7-----------7--7h5-|
    A---------------------------------------------------------|
    
    
    Verse 1: (1:07)
    
    A
    There we were, now here we are
    Dsus4 Cadd9sus4
    All this confusion, nothing's the same to me
    A
    There we were, now here we are
    Dsus4 Cadd9sus4
    All this confusion, nothing's the same to me
    
    
    Chorus: (1:26)
    
    A
    But I can't tell you the way I feel
    Dsus4 Cadd9sus4
    'Cos the way I feel is oh so new to me
    A
    No I can't sell you the way I feel
    Dsus4 Cadd9sus4
    'Cos the way I feel is oh so new to me
    
    
    Solo: (1:46)
    
    A Dsus4 Cadd9sus4
    B---------------------------------------------------------|
    G--7---6---------7---6---------7---6---------7---5--------|
    D----7---7--5h7----7---7--5h7----7---7--5h7----7---7--5h7-|
    A---------------------------------------------------------|
    
    
    Verse 2: (2:05)
    
    What I heard is not what I hear
    I can see the signs but they're not very clear
    What I heard is not what I hear
    I can see the signs but they're not very clear
    
    
    But I can't tell you the way I feel,
    'Cos the way I feel is oh so new to me
    No I can't sell you the way I feel
    'Cos the way I feel is oh so new to me
    
    A Dsus4 Cadd9sus4
    B---------------------------------------------------------|
    G--7---6---------7---6---------7---6---------7---5--------|
    D----7---7--5h7----7---7--5h7----7---7--5h7----7---7--5h7-|
    A---------------------------------------------------------|
    This is confusion, am I confusing you?
    
    A Dsus4 Cadd9sus4
    B---------------------------------------------------------|
    G--7---6---------7---6---------7---6---------7---5--------|
    D----7---7--5h7----7---7--5h7----7---7--5h7----7---7--5h7-|
    A---------------------------------------------------------|
    This is confusion, am I confusing you?
    
    A Dsus4 Cadd9sus4
    E-----------------------------------------------------------------|
    B--15^17----b17--b17---15^17--b17---b17---15^17--b17--b17---15^17-|
    G-----------------------------------------------------------------|
    This is peculiar, we don't wanna fool ya
    
    A Dsus4 Cadd9sus4
    E-----------------------------------------------------------------|
    B--15^17----b17--b17---15^17--b17---b17---15^17--b17--b17---15^17-|
    G-----------------------------------------------------------------|
    This is peculiar, we don't wanna fool ya
    
    Outro: (3:21)
    
    
    A Dsus4 Cadd9sus4
    D-----------------------------------------------|
    A--0-0-3-5-3---0-0-3-5-3---0-0-3-5-3--5b5-3---0-| (x2)
    E-3-----------3-----------3-----------------3---|
    
    A Dsus4 Cadd9sus4
    B---------------------------------------------------------|
    G--7---6---------7---6---------7---6---------7---5--------|
    D----7---7--5h7----7---7--5h7----7---7--5h7----7---7--5h7-| (x2)
    A---------------------------------------------------------|
    
    A Dsus4 Cadd9sus4
    B-------------------------------------------------------------|
    G--7b7-5h7-5---5h7-7b7-5h7-5---5h7-7b7-5------5-7-7b7-5-------|
    D------------7---------------7----------7-5h7-----------7-5h7-| (x3)
    A-------------------------------------------------------------|
    
    A Dsus4 Cadd9sus4
    B-----------------------------------------------------------|
    G--7b7-5h7-5---5h7-7b7-5h7-5---5h7-7b7-5------7b7b7b7b7-5---|
    D------------7---------------7----------7-5h7-------------7-|
    A-----------------------------------------------------------|
    
    A Dsus4 Cadd9sus4
    B----------------------------------|
    G---------------7------------------|
    D---9b9-7---9b9----9b9--9b9--9b9-9-| (x3)
    A----------------------------------|
    
    
    A Dsus4 Cadd9sus4
    B----------------------------------|
    G-----5b5--5b5--5b5--5b5--5b5--5b5-|
    D----------------------------------| [ Repeat to Fade ]
    A----------------------------------|
    Yeah Yeah Yeah
    

    Тональность:

    Это должно быть в ТОП-листе! - Топ-лист композиций



    Назад
    Рекомендуем посмотреть другие песни исполнителя «Oasis»:

    • Комменты Fb ()
    • Комменты ВК



    Добавить в Избранное Браузера
    Сохранить здесь Очистить


    x

    0


    +
    -

    +
    -

    -

    Авторизация





    Зарегистрироваться

    M

    Дата и время

    • 23:50:40
       

    Социальные ссылки


    Наши приложения

    • Muzbank App Play Market
    • Muzbank Amazon App