MUZBANK



A Most Complete Bank Of Music Information

МУЗЫКАЛЬНО-ИНФОРМАЦИОННЫЙ БАНК

Поиск по сайту







    OOasis • Daytripper (аккорды и текст - chords & lyrics)


    242

    Print

    Видео «Daytripper (Oasis)»

    Видео клипы к песне подбираются автоматически сайтом youtube. Возможны некоторые несоответствия клипов песне.

    ↑ Спрятать рекламу ↑



    Download


    Intro:
    
    E|----------------------------------------------|
    B|----------------------------------------------|
    G|----------------------------------------------| *4
    A|--------------------2---0--------4------0---2-|
    D|-----------------2------------2-------2-------|
    E|-0-------3---4--------------------------------|
    
    Play this during verse :
    
    E|----------------------------------------------|
    B|----------------------------------------------|
    G|----------------------------------------------|
    A|--------------------2---0--------4------0---2-| *2
    D|-----------------2------------2-------2-------|
    E|-0-------3---4--------------------------------|
    
    E|----------------------------------------------|
    B|----------------------------------------------|
    G|---------------------2---0--------4------0--2-|
    A|------------------2----------2--------2-------| * 1
    D|-0------3---4---------------------------------|
    E|----------------------------------------------|
    
    E|----------------------------------------------|
    B|----------------------------------------------|
    G|----------------------------------------------|
    A|--------------------2---0--------4------0---2-| *1
    D|-----------------2------------2-------2-------|
    E|-0-------3---4--------------------------------|
    
    Chorus
    
    Bm * 16, E7 * 4, C * 4, B * 4
    
    E|----------------------------------------------|
    B|----------------------------------------------|
    G|----------------------------------------------|
    D|--------------------2---0--------4------0---2-|
    A|-----------------2------------2-------2-------|
    E|-0-------3---4--------------------------------|
    
    Verse 2 = same as verse 1
    
    Repeat chorus
    
    E-----------------------------------------------------------
    B-----------------------------------------------------------
    G-----------------------------------------------------------
    A------------------------------2---0--------4------0---2---- * 1
    D---------------------------2------------2-------2----------
    E-0-v--v----0-------3---4-----------------------------------
    
    Repeat verse 1
    
    Repeat chorus
    
    E-----------------------------------------------------------
    B-----------------------------------------------------------
    G-----------------------------------------------------------
    A------------------------------2---0--------4------0---2---- * 4
    D---------------------------2------------2-------2----------
    E-----------0-------3---4-----------------------------------
    
    Then
    
    E----0------------------------------------------------------
    B---------2-------2-----------------------------------------
    G-------------0--------0----2------------------------------- * 4
    A-----------------------------------------------------------
    D-----------------------------------------------------------
    E-----------------------------------------------------------
    
    Then slower than usual
    
    E|----------------------------------------------------------------|
    B|----------------------------------------------------------------|
    G|----------------------------------------------------------------| *1
    A|-----------------------------2------0--------4---------0------2-|
    D|-----------------------2------------------2-------2-------------|
    E|-0-------3-------4----------------------------------------------|
    
    End
    

    Тональность:

    Нет текста!



    Назад
    Рекомендуем посмотреть другие песни исполнителя «Oasis»:

    • Комментарии Facebook ()
    • Комментарии ВКонтакте



    Добавить в Избранное Браузера
    Сохранить здесь Очистить


    x

    0


    +
    -

    +
    -

    -

    Авторизация





    Зарегистрироваться

    M

    Дата и время

    • 01:17:49
       

    Социальные ссылки


    Наши приложения

    • Muzbank App Play Market
    • Muzbank Amazon App