MUZBANK



A Most Complete Bank Of Music Information

МУЗЫКАЛЬНО-ИНФОРМАЦИОННЫЙ БАНК

Поиск по сайту







    OOasis • Dirty Magic (аккорды и текст - chords & lyrics)


    243

    Print

    Видео «Dirty Magic (Oasis)»

    Видео клипы к песне подбираются автоматически сайтом youtube. Возможны некоторые несоответствия клипов песне.

    ↑ Спрятать рекламу ↑



    Download


    Intro & verse (guitar 1)
    
    E|---------------------------------------------------------------------------
    B|---------------------------------------------------------------------------
    G|---------------------------------------------------------------------------
    D|---------------------------------------------------------------------------
    A|---------------7---------7----------10---------------9---------------------
    E|--0--3/5--5-5-----5---5-----5/8-8-8-----8--8⁄7--7-7----7-0-7-8-7-0-7-0-8-7-
    
    Guitar 2 (over verse)
    
    grad strum harder
    E|-------------------|---------------------------------------------
    B|-5-5-5-5-5-5-5-5-5-|-3-3-3-3p5-5-5-5-5-5-5-3-3-5-5-0-------------
    G|-------------------|---------------------------------------------
    D|-------------------|---------------------------------------------
    A|-------------------|---------------------------------------------
    E|-------------------|---------------------------------------------
    first time only
    
    fill 1 (guitar 2 over verse) fill 2
    
    grad strum
    . harder .
    E|---------------------------- E|--------------------------------
    B|-5-5-5-5-5-5--0-0-0--------- B|--3/5--5-5-5-5------------------
    G|---------------------------- G|--------------------------------
    D|---------------------------- D|--------------------------------
    A|---------------------------- A|--------------------------------
    E|---------------------------- E|--------------------------------
    
    
    fill 3 fill 4
    grad strum
    . harder .
    E|---------------------------- E|--------------------------------
    B|-5-5-5-5-5-5-5-5-5---------- B|--5-5⁄3-3-3-3/5-5-0-------------
    G|---------------------------- G|--------------------------------
    D|---------------------------- D|--------------------------------
    A|---------------------------- A|--------------------------------
    E|---------------------------- E|--------------------------------
    
    
    Chorus (this part is iffy -if it doesn't sound right make up your own
    chorus)
    
    D E D E B A
    E|-----------------------------------------------------------------
    B|-----------------------------------------------------------------
    G|--7/9--9--9--9----7-9-9-9---------------------------------------- X 3
    D|--7/9--9--9--9----7-9-9-9---9-9-9--9-------7-7-7--7--------------
    A|--5/7--7--7--7----5-7-7-7---9-9-9----9-----7-7-7----7------------
    E|----------------------------7-7-7------7---5-5-5------5----------
    
    A C B E
    E|------------------------------------------------------------------
    B|------------------------------------------------------------------
    G|------------------------------------------------------------------
    D|----7-7-7-7-7-7-7-7/10-10-10-10--9--9--2--------------------------
    A|----7-7-7-7-7-7-7-7/10-10-10-10--9--9--2--------------------------
    E|----5-5-5-5-5-5-5-5/8--8--8--8---7--7--0--------------------------
    
    Interlude
    
    E|----------------------------------------------------------
    B|--7-7-7-7/8-8-8-8-8-8-8-7-7-5-5-3-3-5/7-------------------
    G|----------------------------------------------------------
    D|----------------------------------------------------------
    A|----------------------------------------------------------
    E|---------------------------
    

    Тональность:

    Нет текста!



    Назад
    Рекомендуем посмотреть другие песни исполнителя «Oasis»:

    • Комментарии Facebook ()
    • Комментарии ВКонтакте



    Добавить в Избранное Браузера
    Сохранить здесь Очистить


    x

    0


    +
    -

    +
    -

    -

    Авторизация





    Зарегистрироваться

    M

    Дата и время

    • 13:08:55
       

    Социальные ссылки


    Наши приложения

    • Muzbank App Play Market
    • Muzbank Amazon App