MUZBANK



A Most Complete Bank Of Music Information

МУЗЫКАЛЬНО-ИНФОРМАЦИОННЫЙ БАНК

Поиск по сайту







    OOasis • Masterplan (аккорды и текст - chords & lyrics)


    410

    Print

    Видео «Masterplan (Oasis)»

    Видео клипы к песне подбираются автоматически сайтом youtube. Возможны некоторые несоответствия клипов песне.

    ↑ Спрятать рекламу ↑



    Download


    Intro:
    -----
    
    Chords used in intro:
    
    Am (x07500)
    Am/G# (x06500)
    Am7 (x05500)
    Am/F# (x04500)
    Fmaj7/A (x03500)
    Am/D (x00500)
    E7 (020100)
    
    So here it goes:
    
    Am Am/G# Am7 Am/F# Fmaj7/A Am/D
    e------------(12)-----(12)-------(19)-----------------
    B---------------------------(12)----------------------
    G-----------------------------------------------------
    D-----------------------------------------------------
    A-----------------------------------------------------
    E-----------------------------------------------------
    
    Am E7
    e---------0-----------------------------------------------
    B-------3---3---------------------------------------------
    G-------------0-------------------------------------------
    D---2s4---------------------------------------------------
    A---------------------------------------------------------
    E---------------------------------------------------------
    
    THEN: Repeat intro chords one more time through, with the second guitar
    picking notes from the chords in a kind of random pattern, but which can
    basically played like this:
    
    Am Am/G# Am/G
    e------------0----------------------0---------------------
    B--------------0----------------------0-------------------
    G----5--4--5-----5----------5--4--5-----5-----------------
    D-7----------------7--7--6----------------6--6--5--etc.---
    A---------------------------------------------------------
    E---------------------------------------------------------
    
    Verse 1
    -------
    Am
    Take the time to make some sense
    
    A7sus4
    of what you want to say
    
    Fmaj7/A A7sus4 Am E7
    and cast your words away upon the waves
    
    Am
    Sail them home with acquiesce
    
    A7sus4
    On a ship of hope today
    
    Fmaj7/A A7sus4
    And as they land upon the shore
    
    D F
    Tell them not to fear no more
    
    G E E7
    Say it loud, and sing it proud today And then
    
    Chorus:
    -------
    
    C
    Dance if you wanna dance
    
    C/B
    Please brother take a chance
    
    Am
    You know they're gonna go
    
    G F G C G
    Which way they wanna go
    
    All we know is that we don't
    C
    Know how it's gonna be
    
    C/B
    Please brother let it be
    
    Am
    Life on the other hand
    
    G F G
    won't make you understand
    
    Am A7sus4 Fmaj7/A A7sus4 Am E7
    We're all part of the masterplan
    

    Тональность:

    Нет текста!



    Назад
    Рекомендуем посмотреть другие песни исполнителя «Oasis»:

    • Комментарии Facebook ()
    • Комментарии ВКонтакте



    Добавить в Избранное Браузера
    Сохранить здесь Очистить


    x

    0


    +
    -

    +
    -

    -

    Авторизация





    Зарегистрироваться

    M

    Дата и время

    • 16:38:55
       

    Социальные ссылки


    Наши приложения

    • Muzbank App Play Market
    • Muzbank Amazon App