MUZBANK



A Most Complete Bank Of Music Information

МУЗЫКАЛЬНО-ИНФОРМАЦИОННЫЙ БАНК

Поиск по сайту







    OOasis • Put Yer Money Where Yer Mouth Is (аккорды и текст - chords & lyrics)


    208

    Print

    Видео «Put Yer Money Where Yer Mouth Is (Oasis)»

    Видео клипы к песне подбираются автоматически сайтом youtube. Возможны некоторые несоответствия клипов песне.

    ↑ Спрятать рекламу ↑



    Download


    INTRO and VERSE 1:
    
    A strange noise starts and lasts until the end of the song,
    I tried to tab it:
    
    -------------
    -------------
    -------------
    ---6~~~~~----
    -------------
    -------------
    
    Another note is played throughout the whole song:
    
    ---11--11--11--- etc...
    ----------------
    ----------------
    ----------------
    ----------------
    ----------------
    
    VERSE RIFF:
    
    Eb5 F#5 Ab5 F#5
    ----------------------
    ----------------------
    ---------------------- repeat
    --1----4---6---4------
    --1----4---6---4------
    -------2---4---2------
    
    
    VERSE2:
    
    guitar1 plays the VERSE RIFF:
    
    Eb5 F#5 Ab5 F#5
    ----------------------
    ----------------------
    ---------------------- repeat
    --1----4---6---4------
    --1----4---6---4------
    -------2---4---2------
    
    
    guitar2 plays this fill:
    let ring + fat distortion
    ----------------------------------------------
    ----------------------------------------------
    ----------------------------------------------
    ----------4---6--6--6b7r6--4--6--4--(x2)------
    --6--6--6---6----------------------------6~~--
    ----------------------------------------------
    
    
    guitar3 plays this fill but not all the time:
    let ring + fat distortion
    -------9-------------------
    --9s11---11s---------------
    --------------6--6h8--6s8--=20
    ---------------------------
    ---------------------------=20
    ---------------------------
    
    
    CHORUS:
    
    let ring + fat distortion
    -------9-------------------
    --9s11---11s---------------
    --------------6--6h8--6s8-- (x5)
    ---------------------------
    ---------------------------=20
    ---------------------------
    
    another guitar plays these chords:
    
    ---------------------------
    ---------------------------
    --6--8--6--8-----6--8--5---
    --6--8--6--8--4--8--6--5---
    --4--6--4--6--4--6--4--3---
    --------------2------------
    
    
    VERSE3:
    
    guitar1:
    ------------------------------------------
    ------------------------------------------
    ------------------x2----------5-------x2--
    --1----4---6---4------1---4---5---4-------
    --1----4---6---4------1---4---3---4-------
    -------2---4---2----------2-------2-------
    
    VERSE RIFF:
    
    Eb5 F#5 Ab5 F#5
    ----------------------
    ----------------------
    ---------------------- repeat
    --1----4---6---4------
    --1----4---6---4------
    -------2---4---2------
    
    
    guitar2:played along
    let ring + fat distortion
    -------------------------------------
    -------------------------------------
    -------------------------------------
    ----------4---6--6--6b7r6--4--6--4---
    --6--6--6---6------------------------
    -------------------------------------
    
    
    guitar3 plays this fill but not all the time:
    let ring + fat distortion
    -------9-------------------
    --9s11---11s---------------
    --------------6--6h8--6s8--=20
    ---------------------------
    ---------------------------=20
    ---------------------------
    
    
    CHORUS
    
    let ring + fat distortion
    -------9-------------------
    --9s11---11s---------------
    --------------6--6h8--6s8-- (x5)
    ---------------------------
    ---------------------------=20
    ---------------------------
    
    another guitar plays these chords:
    
    ---------------------------
    ---------------------------
    --6--8--6--8-----6--8--5---
    --6--8--6--8--4--8--6--5---
    --4--6--4--6--4--6--4--3---
    --------------2------------
    
    
    OUTRO:
    
    guitar1:
    
    VERSE RIFF:
    
    Eb5 F#5 Ab5 F#5
    ----------------------
    ----------------------
    ---------------------- repeat
    --1----4---6---4------
    --1----4---6---4------
    -------2---4---2------
    
    and just before the end,guitar1 plays these chords:
    
    ------------------
    ------------------
    ----------5------- (x2)
    --1---4---5---4---
    --1---4---3---4---
    ------2-------2---
    
    
    guitar2:played along
    let ring + fat distortion
    -------------------------------------
    -------------------------------------
    -------------------------------------
    ----------4---6--6--6b7r6--4--6--4---
    --6--6--6---6------------------------
    -------------------------------------
    

    Тональность:

    Нет текста!



    Назад
    Рекомендуем посмотреть другие песни исполнителя «Oasis»:

    • Комментарии Facebook ()
    • Комментарии ВКонтакте



    Добавить в Избранное Браузера
    Сохранить здесь Очистить


    x

    0


    +
    -

    +
    -

    -

    Авторизация





    Зарегистрироваться

    M

    Дата и время

    • 19:40:52
       

    Социальные ссылки


    Наши приложения

    • Muzbank App Play Market
    • Muzbank Amazon App