MUZBANK



A Most Complete Bank Of Music Information

МУЗЫКАЛЬНО-ИНФОРМАЦИОННЫЙ БАНК

Поиск по сайту







    OOasis • Shakermaker (аккорды и текст - chords & lyrics)


    236

    Print

    Видео «Shakermaker (Oasis)»

    Видео клипы к песне подбираются автоматически сайтом youtube. Возможны некоторые несоответствия клипов песне.

    ↑ Спрятать рекламу ↑



    Download



    Intro:
    
    E--------------------0-----------------------------------------|
    B----0------0------0--0---------0-------0----------0-------0---|
    G---2-2----2-2----2-2--2-------7-7-----7-7--------2-2-----2-2--|
    D--1---1--1---1--1---1--1-----6---6---6---6------1---1---1---1-|
    A-2-----2------2-------------7------7-----------2------2-------|
    E--------------------------------------------------------------|
    
    [ Band Kicks In ] A E B13 F#
    
    
    Verse 1: (0:30)
    
    B13
    I'd like to be somebody else and not know where I've been
    E B13
    I'd like to build myself a house out of plasticine
    A E B13
    Aaaah, aaaaah, Shake along with me
    A E B13 F#
    Aaaah, aaaaah, Shake along with me
    
    
    Verse 2: (1:10)
    
    I've been driving in my car with my friend Mr. Soft
    Mr. Clean and Mr.Ben are living in my loft
    Aaaah, aaaaah, Shake along with me
    Aaaah, aaaaah, Shake along with me
    
    
    Solo: (1:50)
    
    G------------| G--------------|
    D----9b------| D--------------|
    A-4^9--5b-2b-| (x4) A----5-2-0-2^5-| (x2)
    E------------| E-0-0----------|
    
    
    G------------| G-------------------------------------|
    D----9b------| D----9-11b9-----9-----9-11-9--11b11b9-|
    A-4^9--5b-2b-| (x4) A-4^9-------9-11--9-11----------------|
    E------------| E-------------------------------------|
    
    
    Chorus: (2:20)
    
    D A B13
    I'm sorry but I just don't know
    D A B13
    I know I said I told you so
    D A B13
    But when you're happy and you're feeling fine
    A E
    Then you'll know that it's the right time
    A E
    Yeah, you know that it's the right time
    
    
    [ With Intro ]
    
    shake along with me! shake along with me!
    shake along with me! shake along with me!
    
    
    Verse 3: (3:18)
    
    Mister Sifter sold me songs when I was just sixteen
    Now he stops at traffic lights but only when they're green
    A E B13
    Aaaah, aaaaah, Shake along with me
    A E B13
    Aaaah, aaaaah, Shake along with me
    A E B13
    Aaaah, aaaaah, Shake along with me
    A E
    Aaaah, aaaaah...
    
    
    Outro: (4:14)
    
    [ With Intro and then mix with this ]
    
    B-----------------------------------|
    G-----------------------4b4b4b4-2b2-|
    D--0-1--0-1----0-1--0-1-------------|
    A-2----2----2-2----2----------------|
    E-----------------------------------|
    
    shake along with me! shake along with me!
    shake along with me! shake along with me!
    shake along with them! shake along with me!
    shake along with them! shake along with me!
    
    
    [ Ends with E ]
    

    Тональность:

    Нет текста!



    Назад
    Рекомендуем посмотреть другие песни исполнителя «Oasis»:

    • Комментарии Facebook ()
    • Комментарии ВКонтакте



    Добавить в Избранное Браузера
    Сохранить здесь Очистить


    x

    0


    +
    -

    +
    -

    -

    Авторизация





    Зарегистрироваться

    M

    Дата и время

    • 09:11:47
       

    Социальные ссылки


    Наши приложения

    • Muzbank App Play Market
    • Muzbank Amazon App