MUZBANK



A Most Complete Bank Of Music Information

МУЗЫКАЛЬНО-ИНФОРМАЦИОННЫЙ БАНК

Поиск по сайту







    OOasis • Stand By Me (аккорды и текст - chords & lyrics)


    235

    Print

    Видео «Stand By Me (Oasis)»

    Видео клипы к песне подбираются автоматически сайтом youtube. Возможны некоторые несоответствия клипов песне.

    ↑ Спрятать рекламу ↑



    Download



     
    
    
    Intro: (Chords same as verse)
    E:----------
    B:----------
    G:----------
    D:----------
    A:----------
    E:-12/3-----
    
    E:---------------------------------------------------
    B:---------------------------------------------------
    G:------12----12h14-14b16r14-12-14b16r14-12--12-12-11
    D:12h14----14----------------------------------------
    A:---------------------------------------------------
    E:---------------------------------------------------
    
    E:----------------------------------------------------------
    B:----------------------------------------------------------
    G:------12----12---------12----12h14-14b16r14-12-14b16r14-12
    D:12h14----14------12h14----14------------------------------
    A:----------------------------------------------------------
    E:----------------------------------------------------------
    
    Verse:
      G,B11,C,C,D
    E:3--0--0-0-2  
    B:3--0--1-1-3
    G:0--2--0-0-2
    D:0--1--2-0-0
    A:2--2--3-2-x
    E:3--0--3-0-x
    
    Pre-chorus:
      C,D,G,D,Em,A,D
    E:0-2-3-2--0-0-2
    B:1-3-3-3--0-2-3
    G:0-2-0-2--0-2-2
    D:2-0-0-0--2-2-0
    A:3-x-2-x--2-0-x
    E:3-x-3-x--0-x-x
    
    Chorus:
      G,D,Am,C,F,D,G
    E:3-2--0-0-1-2-3
    B:3-3--1-1-1-3-3
    G:0-2--2-0-2-2-0
    D:0-0--2-2-3-0-0
    A:2-x--0-3-3-x-2
    E:3-x--x-3-1-x-3
    
    Solo: Em,D,C
    E:--------------------
    B:--------------------
    G:11h12p11------------
    D:---------14-12h14-12
    A:--------------------
    E:--------------------  x3
    
    
    
    Order:
    Intro
    Verse x2
    Pre-chorus
    Verse x2
    Pre-chorus
    Chorus x4
    Verse x2
    Pre-chorus
    Chorus x4
    Solo
    Pre-chorus
    Chorus x4
     

    Тональность:

    Нет текста!



    Назад
    Рекомендуем посмотреть другие песни исполнителя «Oasis»:

    • Комментарии Facebook ()
    • Комментарии ВКонтакте



    Добавить в Избранное Браузера
    Сохранить здесь Очистить


    x

    0


    +
    -

    +
    -

    -

    Авторизация





    Зарегистрироваться

    M

    Дата и время

    • 20:39:53
       

    Социальные ссылки


    Наши приложения

    • Muzbank App Play Market
    • Muzbank Amazon App