MUZBANK



A Most Complete Bank Of Music Information

МУЗЫКАЛЬНО-ИНФОРМАЦИОННЫЙ БАНК

Поиск по сайту







    OOasis • Underneath The Sky (аккорды и текст - chords & lyrics)


    244

    Print

    Видео «Underneath The Sky (Oasis)»

    Видео клипы к песне подбираются автоматически сайтом youtube. Возможны некоторые несоответствия клипов песне.

    ↑ Спрятать рекламу ↑



    Download


    Fill 1: Fill 2:
    E|---------------------------------------------|
    B|---7-8-7--10--8--7------------7-8-7----------|
    G|-------------------------------------9--7----|
    D|-9--------------------------9--------------9-|
    A|---------------------------------------------|
    E|---------------------------------------------|
    
    Fill 3: Fill 4:
    G A Bm G A Bm
    E|--------------------------------------------------------|
    B|----3-----5-----------------------3-----5---------------|
    G|------------------10-9-7-----------------------10--7----|
    D|-5-----7--------9--------------5-----7-------9--------7-|
    A|--------------------------------------------------------|
    E|--------------------------------------------------------|
    
    Fill 5:
    E|-------------------|
    B|-------------------|
    G|--9b10-b10r9--7----|
    D|-----------------9-|
    A|-------------------|
    E|-------------------|
    
    Intro (w/ effect)
    -----
    E|-------------------------------------------------|
    B|-3--3--3p0-3p0-3--3--3p0-3p0-3--5--3p0-3--5--3p0-|
    G|-4--4--4---4---4--4--4---4---4--4--4---4--4--4---|
    D|-4--4--4---4---4--4--4---4---4--4--4---4--4--4---|
    A|-2--2--2---2---2--2--2---2---2-------------------|
    E|-------------------------------------------------|
    
    then:
    
    Guitar 1: G F#7 A Bm G A Bm G A Bm F#7
    Guitar 2: Fill 2 Fill 1 Fill 2 Fill 1
    
    Guitar 1: Bm G A Bm G A Bm F#7
    Guitar 2: Fill 2 Fill 1
    
    Verse
    -----
    Bm G A Bm G A Bm F#7
    Underneath a sky of breath is a storyteller sleeping alone
    Bm G A Bm G A Bm
    He has no face and he has no name an' his whereabouts are sort of unknown
    
    Pre-chorus
    ----------
    F#7 G A Bm
    (w/ Fill 3)
    All he needs is his life in a suitcase
    G A Bm
    (w/ Fill 3)
    It belongs to a friend of a friend
    G A Bm
    (w/ Fill 4)
    And as we drink to ourselves we'll amuse ourselves
    
    Chorus
    ------
    G
    Underneath the sky
    F# A G#m G Bm A G#m G
    (Fill 5)
    Underneath the sky again
    Bm A G#m G Bm A G F#7 A
    (Fill 5)
    Underneath the sky again
    
    Bm G A Bm G A Bm F#7
    (Fill 5) (Fill 5)
    
    Verse 2
    -------
    So wish me away to an unknown place
    Am I living in a land with no name? (Fill 5)
    I'll be making a start with my brand new heart
    stop me making sense once again (Fill 5)
    
    Pre-chorus
    ----------
    (Fill 3)
    All we need is our lives in a suitcase
    (Fill 3)
    They belong to a friend of a friend
    (Fill 3)
    And as we drink to ourselves we amuse ourselves
    
    Chorus
    ------
    Underneath the sky
    (Fill 5)
    Underneath the sky again
    (Fill 5) (Fill 5)
    Underneath the sky again
    
    SOLO:
    

    Тональность:

    Нет текста!



    Назад
    Рекомендуем посмотреть другие песни исполнителя «Oasis»:

    • Комментарии Facebook ()
    • Комментарии ВКонтакте



    Добавить в Избранное Браузера
    Сохранить здесь Очистить


    x

    0


    +
    -

    +
    -

    -

    Авторизация





    Зарегистрироваться

    M

    Дата и время

    • 12:55:01
       

    Социальные ссылки


    Наши приложения

    • Muzbank App Play Market
    • Muzbank Amazon App