MUZBANK



A Most Complete Bank Of Music Information

МУЗЫКАЛЬНО-ИНФОРМАЦИОННЫЙ БАНК

Поиск по сайту







    OOasis • Where Did It All Go Wrong (аккорды и текст - chords & lyrics)


    224

    Print

    Видео «Where Did It All Go Wrong (Oasis)»

    Видео клипы к песне подбираются автоматически сайтом youtube. Возможны некоторые несоответствия клипов песне.

    ↑ Спрятать рекламу ↑



    Download



    Intro
    Spoken :- two, three, four
    
    Em7 Dsus2 x 2
    
    Verse 1
    
    Em7 Dsus2
    You know that feeling you get,_________
    Em7 D Dsus2
    You feel your older than time._________
    Cadd9 Dsus2 Em7 D Dsus2
    You aint exactly sure______ if you've been away a while._______
    
    Verse 2
    
    Em7 D Dsus2
    Do you keep the receipts________
    Em7 D Dsus2
    For the friends that you buy?______
    Cadd9 Dsus2 A7sus4 Cadd9
    And ain't it bitter sweet,______ you were only just getting by.
    
    Chorus
    
    Em7
    But I hope you know_____ that it won't let go,
    Dsus2 Asus4
    It sticks around with you until the day you die.________
    Em7
    And I hope you know_____ that it's touch and go,
    Dsus2
    I hope the tears don't stain the world that waits outside.
    Asus4 C
    Where did it all go__ wrong?___________
    
    Em7 Dsus2 x 2
    
    Verse 3
    
    Em7 Dsus2
    And until you've repaid________
    Em7 Dsus2
    the dreams you bought for your lies,_____
    Cadd9 Dsus2 Asus4
    you'll be castaway____ alone under stormy skies,_____
    Cadd9 Asus4 Cadd9
    alone under stormy skies.____
    
    Chorus
    
    Em7
    But I hope you know_____ that it won't let go,
    Dsus2 Asus4
    It sticks around with you until the day you die.________
    Em7
    And I hope you know_____ that it's touch and go,
    Dsus2
    I hope the tears don't stain the world that waits outside.
    Asus4 C
    Where did it all go__ wrong?___________
    
    Solo
    Cadd9 G D Em Cadd9 G
    ---------------------|-----------------------|----------------------
    --15b-----12v--------|-12h13p12--------------|-15b--------12v-----12
    ---------------------|---------14-12---------|----------------------
    ---------------------|----------------14-----|----------------------
    ---------------------|-----------------------|----------------------
    ---------------------|-----------------------|----------------------
    
    D Em Cadd9 G D Em
    --15b-------12v------|-----------------------|----------------------
    ---------------------|-15b-------12----------|-7h8p7----------------
    ---------------------|-----------------------|--------9p7---7h9-----
    ---------------------|-----------------------|------------9---------
    ---------------------|-----------------------|----------------------
    ---------------------|-----------------------|----------------------
    
    Cadd9 B
    -------------------------------|------0-----------------------|
    -------------------------------|------------------------------|
    -------------0-0--2b--0---0-2-0|-2b-------2b-p---0------------|
    ----0-----0-------------2------|-------------------2p0--------|
    --2----2-----------------------|-----------------------2p0----|
    -------------------------------|----------------------------3b|
    
    
    Outro
    
    Em7
    But I hope you know_____ that it won't let go,
    Dsus2 Asus4
    It sticks around with you until the day you die.________
    Em7
    And I hope you know_____ that it's touch and go,
    Dsus2
    I hope the tears don't stain the world that waits outside.
    
    Em7
    But I hope you know_____ that it won't let go,
    Dsus2 Asus4
    It sticks around with you until the day you die.________
    Em7
    And I hope you know_____ that it's touch and go,
    Dsus2
    I hope the tears don't stain the world that waits outside.
    Asus4 Cadd9
    Where did it all go__ wrong?
    

    Тональность:

    Нет текста!



    Назад
    Рекомендуем посмотреть другие песни исполнителя «Oasis»:

    • Комментарии Facebook ()
    • Комментарии ВКонтакте



    Добавить в Избранное Браузера
    Сохранить здесь Очистить


    x

    0


    +
    -

    +
    -

    -

    Авторизация





    Зарегистрироваться

    M

    Дата и время

    • 19:28:47
       

    Социальные ссылки


    Наши приложения

    • Muzbank App Play Market
    • Muzbank Amazon App