MUZBANK



A Most Complete Bank Of Music Information

МУЗЫКАЛЬНО-ИНФОРМАЦИОННЫЙ БАНК

Поиск по сайту







    OOasis • Who Feels Love? (аккорды и текст - chords & lyrics)


    303

    Print

    Видео «Who Feels Love? (Oasis)»

    Видео клипы к песне подбираются автоматически сайтом youtube. Возможны некоторые несоответствия клипов песне.

    ↑ Спрятать рекламу ↑



    Download


    INTRO:
    
    effects
    -------------------
    --10--10--10s7-----
    ---------------7--- (repeat)
    -------------------
    -------------------
    -------------------
    
    
    VERSE1:acoustic guitar played along
    G
    ---3----
    ---3----
    ---4----
    ---5----
    ---5----
    ---3----
    
    electric guitar:
    
    -----------------------------------------
    -------------------------------6---6s8~--
    -------------------------7~--7---7-------
    --5~--3~--3s5~---------------------------
    -----------------------------------------
    -----------------------------------------
    
    
    CHORUS:
    
    guitar1:
    F Am C G F Am G
    --1---0---0---3---1---0---3-----5------5---5----
    --1---1---1---3---1---1---3-------3--3---3---3--
    --2---2---0---4---2---2---4---------------------
    --3---2---2---5---3---2---5---------------------
    ------0---3---5-------0---5---------------------
    --------------3-----------3---------------------
    
    guitar2:
    -------------------------------------
    --------6---6s8~-----------6---6s8~--
    --7~--7---7----------7~--7---7-------
    -------------------------------------
    -------------------------------------
    -------------------------------------
    *
    ------------------------------
    --15~--p13--15p13--15p13------
    -------------------------12~--
    ------------------------------
    ------------------------------
    ------------------------------
    
    
    *another guitar starts to play this fill along:
    
    --------------
    --------------
    --4--5--5--4--
    --5--5--5--5--(repeat)
    --5--------5--
    --------------
    
    
    VERSE2:acoustic guitar played along
    G
    ---3----
    ---3----
    ---4----
    ---5----
    ---5----
    ---3----
    
    guitar2:
    
    --------------
    --------------
    --4--5--5--4--
    --5--5--5--5--(repeat)
    --5--------5--
    --------------
    
    
    CHORUS:
    
    guitar1:
    F Am C G* F Am G
    --1---0---0---3---1---0---3------5------5---5----
    --1---1---1---3---1---1---3--------3--3---3---3--
    --2---2---0---4---2---2---4----------------------
    --3---2---2---5---3---2---5----------------------
    ------0---3---5-------0---5----------------------
    --------------3-----------3----------------------
    
    *guitar2:
    
    ---15~--
    --------
    --------
    --------
    --------
    --------
    
    
    BRIDGE:
    
    guitar1:
    ---------------------------------------------
    ----0--3--0---0--3--0-----0--3--0---0--3--0--
    --0------------------------------------------ (x3)
    ------------3----------2----------0----------
    ---------------------------------------------
    ---------------------------------------------
    
    --------------------------------------------
    ----0--3--0---0--3--0---0--3--0---0--3--0---
    --0-----------------------------------------
    ------------3---------2---------2-----------
    --------------------------------------------
    --------------------------------------------
    
    --------------------------------------------
    ----0--3--0---0--3--0---0--3--0---0--3--0---
    --------------------------------------------
    --1---------1---------1---------1-----------
    --------------------------------------------
    --------------------------------------------
    
    guitar2: played in the end
    
    --------------
    --15~--15s8~--
    --------------
    --------------
    --------------
    --------------
    
    
    SOLO:
    
    guitar1:
    G
    ---3----
    ---3----
    ---4----
    ---5----
    ---5----
    ---3----
    
    guitar2:
    
    ------------------7--8---------------------
    -------------6--8--------------------------
    --7--4--5--7------------(x3)--7--4--5--7---
    -------------------------------------------
    -------------------------------------------
    -------------------------------------------
    
    guitar1:
    
    F Am C G
    --1---0---0---3---
    --1---1---1---3---
    --2---2---0---4--- (repeat)
    --3---2---2---5---
    ------0---3---5---
    --------------3---
    
    guitar2:
    
    let ring...
    ------------------------------
    --15--15--15--15--15h12--10--- repeat
    ------------------------------
    ------------------------------
    ------------------------------
    ------------------------------
    
    guitar3:
    
    let ring...
    -----------------------------------------
    -----8--8----8--8----8--8--10b11--10--8-- repeat
    --10------10------10---------------------
    -----------------------------------------
    -----------------------------------------
    -----------------------------------------
    
    
    CHORUS:
    
    guitar1:
    F Am C G F Am G
    --1---0---0---3-----1---0---3-----5------5---5----
    --1---1---1---3-----1---1---3-------3--3---3---3--
    --2---2---0---4-x3--2---2---4---------------------
    --3---2---2---5-----3---2---5---------------------
    ------0---3---5---------0---5---------------------
    --------------3-------------3---------------------
    
    guitar2:
    
    let ring...
    ---------------------------------------------------
    -----8--8----8--8----8--8--(repeat)--10b11--10--8--
    --10------10------10-------------------------------
    ---------------------------------------------------
    ---------------------------------------------------
    ---------------------------------------------------
    
    guitar3:
    
    let ring...
    ------------------------------
    --15--15--15--15--15h12--10--- repeat
    ------------------------------
    ------------------------------
    ------------------------------
    ------------------------------
    
    
    BRIDGE:
    
    guitar1:
    ---------------------------------------------
    ----0--3--0---0--3--0-----0--3--0---0--3--0--
    --0------------------------------------------
    ------------3----------2----------0----------
    ---------------------------------------------
    ---------------------------------------------
    
    guitar2:
    ------------------7--8--
    -------------6--8-------
    --7--4--5--7------------
    ------------------------
    ------------------------
    ------------------------
    
    repeat until the end...
    

    Тональность:

    Нет текста!



    Назад
    Рекомендуем посмотреть другие песни исполнителя «Oasis»:

    • Комментарии Facebook ()
    • Комментарии ВКонтакте



    Добавить в Избранное Браузера
    Сохранить здесь Очистить


    x

    0


    +
    -

    +
    -

    -

    Авторизация





    Зарегистрироваться

    M

    Дата и время

    • 00:51:56
       

    Социальные ссылки


    Наши приложения

    • Muzbank App Play Market
    • Muzbank Amazon App