MUZBANK



A Most Complete Bank Of Music Information

МУЗЫКАЛЬНО-ИНФОРМАЦИОННЫЙ БАНК

Поиск по сайту







    OOffspring • Burn It Up (аккорды и текст - chords & lyrics)


    274

    Print

    Видео «Burn It Up (Offspring)»

    Видео клипы к песне подбираются автоматически сайтом youtube. Возможны некоторые несоответствия клипов песне.

    ↑ Спрятать рекламу ↑



    Download


     
    
    
    Bass TAB for Burn it Up by the Offspring
    from Igniton
    Submitted and tabbed by Dave Lake (SidVicious_98@yahoo.com)
    
    
    Intro                          2X
    G--------------------------------
    D--------------------------------
    A--------------------------------
    E-0-0-0-0-r-r-r-r-0-0-0-0-r-r-r-r
    
    G---------
    D---------
    A-0-0-0-0-
    E---------
    
    Verse               2x
    G--------------------- ----------------------
    D--------------------- -7-7-8-7-7------------
    A-7-7-8-7-7----------- ----------7*-7*-7*-7*-
    E----------7*-7*-7*-7* ----------------------
    
    G----------------------
    D----------------------
    A-7-7-8-7-7------------          * sixteenth nts.
    E----------7*-7*-7*-7*-
    
    Pre Chorus
    G----------------------------------
    D----------------------------------
    A-7-7-5-5-5-7-7-7-5-5-5-7-7-7-5-5-7
    E----------------------------------
    
    Chorus          4X
    G-----------------
    D-7-7-------------
    A----5-5-7-7-7-7-7
    E-----------------
    
    Verse (without 16ths first couple of times)
    
    Chorus
    
    Bridge
    G---------------------------------
    D---------------------------------
    A-7-7-5-5-5-0-0-7-7-10-10-10-12-12
    E---------------------------------
    
    Repeat until pre chorus
    
    
    Questions, Comments, Corrections, any of that crap 
    e-mail me at: SidVicious_98@yahoo.com
     

    Тональность:

    Нет текста!



    Назад
    Рекомендуем посмотреть другие песни исполнителя «Offspring»:

    • Комментарии Facebook ()
    • Комментарии ВКонтакте



    Добавить в Избранное Браузера
    Сохранить здесь Очистить


    x

    0


    +
    -

    +
    -

    -

    Авторизация





    Зарегистрироваться

    M

    Дата и время

    • 11:07:18
       

    Социальные ссылки


    Наши приложения

    • Muzbank App Play Market
    • Muzbank Amazon App