MUZBANK



A Most Complete Bank Of Music Information

МУЗЫКАЛЬНО-ИНФОРМАЦИОННЫЙ БАНК

Поиск по сайту







    OOffspring • Denial Revisited (аккорды и текст - chords & lyrics)


    221

    Print

    Видео «Denial Revisited (Offspring)»

    Видео клипы к песне подбираются автоматически сайтом youtube. Возможны некоторые несоответствия клипов песне.

    ↑ Спрятать рекламу ↑



    Download


     
    
    
    Offspring Denail, Revisited
    
    good song.......
    
    x - scratch 
    /  - slide 
    : - let ring 
    pm - palm mute 
    p - pull off 
    
    
    intro / riff - guitar 1 - guitar 2 comes in and plays the same thing without x 
    
    |----------------------------------------------------------------------------| 
    |----------------------------------------------------------------------------| 
    |-14-14-14-14/1514-12-10-8-6-8-8-8-8--5-5--14--14-14-14/1514-12-10-6-10-10-| 
    |--x--x--x--x/-x-x--x--x-x-x-x-x-x-x--x-x---x---x--x--x/-x-x--x--x-x--x--x-| 
    |-12-12-12-12/1312-10--8-6-4-6-6-6-6--3-3--12--12-12-12/1312-10--8-4--8--8-| 
    |----------------------------------------------------------------------------| 
    
    riff - guitar 
    
    |------------------------------------| 
    |------------------------------------| 
    |-/14-14-14-14-14-14--14-15-14-15-17-| 
    |------------------------------------| 
    |------------------------------------| 
    |------------------------------------| 
    
    guitar 2 comes in with 
    
    |------------------------------------| 
    |------------------------------------| 
    |------------------------------------| 
    |------------------------15-15-15-15-| 
    |------------------------------------| 
    |------------------------------------| 
    
    verse 
    
    |-5----5----8p6----5----5----8p6----------------------------5-5-5-5-5-5-5-5-5-| 
    |---6----6------6----6----6------6--8-8-8-8-8-8-8-6--6--6-6-------------------| 
    |-----------------------------------------------------------------------------| 
    |-----------------------------------------------------------------------------| 
    |-----------------------------------------------------------------------------| 
    |-----------------------------------------------------------------------------| 
    
    pre chorus 
    pm_________________| 
    |-------------------------| 
    |-------------------------| 
    |-10-10-10-10-10-10-10-10-| 
    |-10-10-10-10-10-10-10-10-| 
    |--8--8--8--8--8--8--8--8-| 
    |-------------------------| 
    
    chorus - guitar 1 
    
    |----------------5h6-6-6-6-6--6--3h5-5-5-5-5--5--3h5--5-5-5-5--5-| 
    |-6h8-8-8-8-8--8-------------------------------------------------| 
    |----------------------------------------------------------------| 
    |----------------------------------------------------------------| 
    |----------------------------------------------------------------| 
    |----------------------------------------------------------------| 
    
    guitar 2 
    
    |--------------------------------------------------------------------| 
    |--------------------------------------------------------------------| 
    |-8-8-8-8-8--8-8----------------10-10-10-10-10--10-10-10-10-10-10-10-| 
    |-8-8-8-8-8--8-8-8-8-8-8-8--8-8-10-10-10-10-10--10-10-10-10-10-10-10-| 
    |-6-6-6-6-6--6-6-8-8-8-8-8--8-8--8--8--8--8--8---8--8--8--8--8--8--8-| 
    |----------------6-6-6-6-6--6-6--------------------------------------| 
    
    post chorus 
    
    |----------------------------------------| 
    |----------------------------------------| 
    |--------------------6-6------8--8-8-8-8-| 
    |-6--6-6-6-8--8-8-8--6-6-6-6--8--8-8-8-8-| 
    |-6--6-6-6-8--8-8-8--4-4-6-6--6--6-6-6-6-| 
    |-4--4-4-4-6--6-6-6------4-4-------------| 
    
    outro 
    
    |---------------------------------------------| 
    |-10-10-10-10-10-10-10-11-10-11-13-11-10-8:---| 
    |---------------------------------------------| 
    |---------------------------------------------| 
    |---------------------------------------------| 
    |---------------------------------------------|
     

    Тональность:

    Нет текста!



    Назад
    Рекомендуем посмотреть другие песни исполнителя «Offspring»:

    • Комментарии Facebook ()
    • Комментарии ВКонтакте



    Добавить в Избранное Браузера
    Сохранить здесь Очистить


    x

    0


    +
    -

    +
    -

    -

    Авторизация





    Зарегистрироваться

    M

    Дата и время

    • 03:22:00
       

    Социальные ссылки


    Наши приложения

    • Muzbank App Play Market
    • Muzbank Amazon App