MUZBANK



A Most Complete Bank Of Music Information

МУЗЫКАЛЬНО-ИНФОРМАЦИОННЫЙ БАНК

Поиск по сайту







    OOffspring • Kill The President (аккорды и текст - chords & lyrics)


    289

    Print

    Видео «Kill The President (Offspring)»

    Видео клипы к песне подбираются автоматически сайтом youtube. Возможны некоторые несоответствия клипов песне.

    ↑ Спрятать рекламу ↑



    Download


     
    
    
    Album: The Offspring
    Year: 1989
    Track: 11
    Title: Kill the president
    
    # intro #    X4     (mute d-string with your index finger)
    E---------------------------------------|                              
    B---------------------------------------|
    G-----------------------------------9---|
    D---14-14-15-14-12-9-12-12-14-14-12-----|
    A---12-12-13-12-10-7-10-10-12-12-10-7---|
    E---------------------------------------|
    
    # intro2 #   X3     (This beats even Mota!)
    E---------------------------------------|
    B---------------------------------------|
    G---------------------------------------|
    D---14-14-15-14-12-9-12-12-14-14-12-9---|
    A---12-12-13-12-10-7-10-10-12-12-10-7---|
    E---------------------------------------|
    
    # verse #      X2                     # chorus # X3 (brackets only first time)
    E----------------------------------|  E-----------------------------|
    B----------------------------------|  B-----------------------------|
    G---9---10--7----------------------|  G--(9)--15-12-14-10-12-10-9---|
    D---9---10--7---9-10-10--7-7-7-2---|  D--(9)--15-12-14-10-12-10-9---|
    A---7----8--5---9-10-10--7-7-7-2---|  A--(7)--13-10-12--8-10--8-7---|
    E---------------7--8--8--5-5-5-0---|  E-----------------------------|
    
    Play verse, chorus and verse.
    
    # bridge #   X4  (during solo)     # bridge2 #     *=play 2X
    E---------------|                  E---------------------------------|
    B---------------|                  B----------------*---*---*---*-*--|
    G---------------|                  G-9--9--9---9---9---9---9---9-9---|
    D---2----8--5---|                  D-9--9--9---9---9---9---9---9-9---|
    A---2----8--5---|                  A-7--7--7---7---7---7---7---7-7---|
    E---0----6--3---|                  E---------------------------------|
    
    Play chorus.
    
    # bridge3 #  X8  (mute d-string with your index finger)
    E-------------------------|
    B-------------------------|
    G---9-----5-----7-----4---|
    D---x-----x-----x-----x---|
    A---7-----3-----5-----2---|
    E-------------------------|
     

    Тональность:

    Нет текста!



    Назад
    Рекомендуем посмотреть другие песни исполнителя «Offspring»:

    • Комментарии Facebook ()
    • Комментарии ВКонтакте



    Добавить в Избранное Браузера
    Сохранить здесь Очистить


    x

    0


    +
    -

    +
    -

    -

    Авторизация





    Зарегистрироваться

    M

    Дата и время

    • 15:31:19
       

    Социальные ссылки


    Наши приложения

    • Muzbank App Play Market
    • Muzbank Amazon App