MUZBANK



A Most Complete Bank Of Music Information

МУЗЫКАЛЬНО-ИНФОРМАЦИОННЫЙ БАНК

Поиск по сайту







    OOffspring • Living In Chaos (аккорды и текст - chords & lyrics)


    264

    Print

    Видео «Living In Chaos (Offspring)»

    Видео клипы к песне подбираются автоматически сайтом youtube. Возможны некоторые несоответствия клипов песне.

    ↑ Спрятать рекламу ↑



    Download


    Guitar 1/intro:
    e|-----------------------------|
    B|-----------------------------|
    G|-----------------------------|
    D|-----------------------------|
    A|-6h8-----6-6-6h8-----6-6-6h8-|
    E|-----------------------------|
    
    Guitar 2/intro:
    e|---------------------------------------------|
    B|---------------------------------------------|
    G|---------------------------------------------|
    D|-6-6--------3-3----------6-6-x-3-1h3-3-3h4-3-|
    A|---------------------------------------------|
    E|---------------------------------------------|
    
    Guitar 1/riff A:
    e|----------|
    B|----------|
    G|-10/11-10-|
    D|-10/11-10-|
    A|-8-/9--8--|
    E|----------|
    
    Guitar 1/riff B:
    e|-------------------------------------------------------------|
    B|-------------------------------------------------------------|
    G|-8/10-10--10--8-8-8/10--10--10--8-8-8/10--10--10--8/10-10-10-|
    D|-8/10-10--10--8-8-8/10--10--10--8-8-8/10--10--10--8/10-10-10-|
    A|-6/8--8---8---6-6-6/8---8---8---6-6-6/8---8---8---6/8--8--8--|
    E|-------------------------------------------------------------|
    
    Guitar 1/riff B?:
    e|---------------------------------------------------------|
    B|---------------------------------------------------------|
    G|-8/10--10--10--8-8-8/10--10--10--8-8-8/10--10--10--------|
    D|-8/10--10--10--8-8-8/10--10--10--8-8-8/10--10--10---4--6-|
    A|-6/8---8---8---6-6-6/8---8---8---6-6-6/8---8---8----4--6-|
    E|----------------------------------------------------2--4-|
    
    Guitar 1/riff C:
    e|---------------------------------------------------------|
    B|---------------------------------------------------------|
    G|-6-6--6--6--6-6-6--6--6--6-8-8--8--8--8-8-8--8--8--8-10:-|
    D|-6-6--6--6--6-6-6--6--6--6-8-8--8--8--8-8-8--8--8--8-10:-|
    A|-4-4--4--4--4-4-4--4--4--4-6-6--6--6--6-6-6--6--6--6-8:--|
    E|---------------------------------------------------------|
    
    Guitar 2/riff D:
    e|-8--9-8-------------|
    B|---------9--8--5--6-|
    G|--------------------|
    D|--------------------|
    A|--------------------|
    E|--------------------|
    
    Guitar 1/riff E:
    e|------------|
    B|-1-1-1/6-6:-|
    G|------------|
    D|------------|
    A|------------|
    E|------------|
    
    Guitar 1/riff F:
    e|-4-4-4--3--3-31--1:-|
    B|--------------------|
    G|--------------------|
    D|--------------------|
    A|--------------------|
    E|--------------------|
    
    Guitar 1/riff G:
    e|-----------------------------------------------------------|
    B|-----------------------------------------------------------|
    G|-----------------------------------------------------------|
    D|-8----8-8--8--8--8-11:---------6----6-6--6--6--6-4:---4--6-|
    A|-8----8-8--8--8--8-11:---------6----6-6--6--6--6-4:---4--6-|
    E|-6----6-6--6--6--6-9:----------4----4-4--4--4--4-2:---2--4-|
    
    Guitar 1/riff H:
    e|---------|
    B|---------|
    G|-8-8-8-8-|
    D|-8-8-8-8-|
    A|-6-6-6-6-|
    E|---------|
    
    Guitar 1/riff I:
    e|-------------|
    B|-------------|
    G|-------------|
    D|-3-3-3-3h4-3-|
    A|-------------|
    E|-------------|
    
    Guitar 2/riff J:
    e|-------------------------|
    B|-------------------------|
    G|-------------------------|
    D|-----6-6--4-1h3--4-1h3-4-|
    A|-6h8---------------------|
    E|-------------------------|
    
    Guitar 1/outro:
    e|-------------------------------------------------------------|
    B|-------------------------------------------------------------|
    G|-8/10-10-10-8-8-8/10-10--10--8-8-8/10--10-10-10-10-10-10--10-|
    D|-8/10-10-10-8-8-8/10-10--10--8-8-8/10--10-10-10-10-10-10--10-|
    A|-6/8--8--8--6-6-6/8--8---8---6-6-6/8---8--8--8--8--8--8---8--|
    E|-------------------------------------------------------------|
    
    Структура песни:
    
    Guitar 1/intro + Guitar 2/intro
    Guitar 1/intro + Guitar 2/intro + Guitar 1/riff A
    Guitar 1/riff B + Guitar 2/intro + Guitar 1/riff A
    Guitar 1/riff B + Guitar 2/intro + Guitar 1/riff A
    Guitar 1/riff C
    Guitar 2/riff D
    Guitar 1/riff E
    Guitar 2/riff D
    Guitar 1/riff F
    Guitar 2/riff D
    Guitar 1/riff E
    Guitar 2/riff D
    Guitar 1/riff F
    Guitar 2/riff D
    Guitar 1/riff E
    Guitar 2/riff D
    Guitar 1/riff H
    Guitar 1/riff B + Guitar 1/riff A
    Guitar 1/riff B + Guitar 1/riff A
    Guitar 1/riff B + Guitar 2/intro + Guitar 1/riff A
    Guitar 1/riff B + Guitar 2/intro
    Guitar 1/riff I
    Guitar 2/riff D
    Guitar 1/riff E
    Guitar 2/riff D
    Guitar 1/riff F
    Guitar 2/riff D
    Guitar 1/riff E
    Guitar 2/riff D
    Guitar 1/riff H
    Guitar 1/riff B + Guitar 1/riff A
    Guitar 1/riff B + Guitar 1/riff A
    Guitar 1/riff B + Guitar 2/intro + Guitar 1/riff A
    Guitar 1/riff B + Guitar 2/intro + Guitar 1/riff A
    Guitar 1/riff G
    Guitar 1/riff G
    Guitar 1/riff B?
    Guitar 1/riff B?
    Guitar 1/riff B?
    Guitar 1/intro + Guitar 2/intro
    Guitar 2/riff D
    Guitar 1/riff E
    Guitar 2/riff D
    Guitar 1/riff F
    Guitar 2/riff D
    Guitar 1/riff E
    Guitar 2/riff D
    Guitar 2/riff J
    Guitar 1/riff G
    Guitar 1/riff G
    Guitar 1/riff B?
    Guitar 1/riff B?
    Guitar 1/riff B?
    Guitar 1/outro
    

    Тональность:

    Нет текста!



    Назад
    Рекомендуем посмотреть другие песни исполнителя «Offspring»:

    • Комментарии Facebook ()
    • Комментарии ВКонтакте



    Добавить в Избранное Браузера
    Сохранить здесь Очистить


    x

    0


    +
    -

    +
    -

    -

    Авторизация





    Зарегистрироваться

    M

    Дата и время

    • 01:35:25
       

    Социальные ссылки


    Наши приложения

    • Muzbank App Play Market
    • Muzbank Amazon App