MUZBANK



A Most Complete Bank Of Music Information

МУЗЫКАЛЬНО-ИНФОРМАЦИОННЫЙ БАНК

Поиск по сайту







    OOffspring • Mota (аккорды и текст - chords & lyrics)


    441

    Print

    Видео «Mota (Offspring)»

    Видео клипы к песне подбираются автоматически сайтом youtube. Возможны некоторые несоответствия клипов песне.

    ↑ Спрятать рекламу ↑



    Download


    Проигрыш:
    E||--------------------------------------------------|
    B||--------------------------------------------------|
    G||--------------------------------------------------|
    D||---5-5--5-5-5--5--5--5-5-5-5--5--5--5-5-5-5-------|
    A||---5-5--5-5-5--5--5--5-5-5-5--5--5--5-5-5-5-------|
    E||---3-3--3-3-3--3--3--3-3-3-3--3--3--3-3-3-3-------|
    
    Mota!
    
    Проигрыш2:
    E|-------------------------------------------------------------
    B|-------------------------------------------------------------|
    G|---12-12--12-12-12--12--12--12-12-12-12--12--12--12-12-12-12-|
    D|---12-12--12-12-12--12--12--12-12-12-12--12--12--12-12-12-12-|
    A|---10-10--10-10-10--10--10--10-10-10-10--10--10--10-10-10-10-|
    E|-------------------------------------------------------------|
    
    Проигрыш3:  2 (РАЗА)   *=play 8X
    E|-------------------------------------------------------------|
    B|-----*-------------------------------------------------------|
    G|---12---14-15-14-12-10-8-8--8-8-8-8-10-10--14--15-14-12-10---|
    D|---12---14-15-14-12-10-8-8--8-8-8-8-10-10--14--15-14-12-10---|
    A|---10---12-13-12-10--8-6-6--6-6-6-6--8--8--12--13-12-10--8---|
    E|-------------------------------------------------------------|
    
    Версия :   2 (РАЗА)     *=play 5X
    E|----------------------|
    B|-----*----*---*----*--|
    G|---12---12---8---10---|
    D|---12---12---8---10---|
    A|---10---10---6----8---|
    E|----------------------|
    
    
    Everyday, well it's the same
    That bong that's on the table starts to call
    My name
    I take a hit and zone out again
    I'll be paranoid and hungry by a quarter to ten
    Watching reruns on my TV
    I'm laughing off my ass at Three's Company
    I don't know if I'm understood
    Buy hearing Jimmy Buffett never sounded so good
    
    
    Припев:  X4  *=play 6X
    
    E|-------------------|
    B|--------*----------|
    G|----*--5----*---*--|
    D|---3---5--(5---5)--|
    A|---3---3--(5---5)--|
    E|---1------(3---3)--|
    
    Your memory's gone and so is your life (your life)
    Mota Boy
    But losing out just never felt so right
    Your enemy's you and so is your life (your life)
    Mota Boy
    But losing out might feel okay all night
    
    Проигрыш2:
    
    N.C.
    Mota!
    
    Проигрыш3:
    
    Версия :
    I'm driving down to the barrio
    Going 15 miles an hour cause I'm already stoned
    Give the guy a twenty and wait in the car
    He tosses me a baggie then he runs real far
    I take a hit but it smells like a clove
    Oh fuck I got a baggie of oregano
    This ritual is destroying me
    But I guess it could be worse
    It could be methedrine
    
    Припев: X3:
    
    Your memory's gone and so is your life (your life)
    Mota Boy
    But losing out just never felt so right
    Your enemy's you and your couch is your life
    (Your Life)
    
    End-Припев:2:  *=play 6X
    E|-------------------|
    B|--------*-------*--|
    G|----*--5----*-10---|
    D|---3---5---8--10---|
    A|---3---3---8---8---|
    E|---1-------6-------|
    
    Проигрыш2:
    
    N.C.
    Mota!
    
    Проигрыш3:
    
    Припев: X5 (third time with palm-muting):
    
    Your memory's gone and so is your life (your life)
    Mota Boy
    But losing out just never felt so right
    Your enemy's you and your couch is your life
    (Your Life)
    
    Проигрыш2:
    

    Тональность:

    Нет текста!



    Назад
    Рекомендуем посмотреть другие песни исполнителя «Offspring»:

    • Комментарии Facebook ()
    • Комментарии ВКонтакте



    Добавить в Избранное Браузера
    Сохранить здесь Очистить


    x

    0


    +
    -

    +
    -

    -

    Авторизация





    Зарегистрироваться

    M

    Дата и время

    • 15:01:56
       

    Социальные ссылки


    Наши приложения

    • Muzbank App Play Market
    • Muzbank Amazon App