MUZBANK



A Most Complete Bank Of Music Information

МУЗЫКАЛЬНО-ИНФОРМАЦИОННЫЙ БАНК








    OOffspring • Pretty Fly (аккорды и текст - chords & lyrics)


    240

    Print

    Видео «Pretty Fly (Offspring)»

    Видео клипы к песне подбираются автоматически сайтом youtube. Возможны некоторые несоответствия клипов песне.

    ↑ Спрятать рекламу ↑






     
    
    
    There were no decent tabs for this song, so i spent an agonous 30min or so typing
    this up in readable format. One thing to note is that the number of chords typed
    may not be the exact number of chords played, get me? I mean I have just given the 
    basic chord, and not the actual timing for changing...Have Fun  
    
    /  -  slide up
      -  slide down
    
    Intro/Bridge:
    ----------------|
    ----------------|
    |--4--------------9--7--7--|
    |--4---4-/-7-/-9--9--7--7--|
    |--2---4-/-7-/-9--7--5--5--|
    |------2-/-5-/-7------------|
    
    
    Verses:               For 2nd guitar:
    |---7-----7----7--|    -----------|
    |---7-----7----7--|    -----------|
    ------|    -----------|
    ------|    -----------|
    ------|    |--2----------7--5--2--|
    ------|    |----2--5--7-----------|
    (repeat that a 
    bunch of times...)
    
    Chorus: (hard)
    --------------|
    --------------|
    |-----10/11--10/11-|-77-------9--7--9-|
    |--99-10/11--10/11-|-77--7-7--9--7--9-|
    |--99--8/-9---8/-9-|-55--7-7--7--5--7-|
    |--77--------------|-----5-5----------| repeat x2
    (repeat measure)
    
    Ending of chorus:
    -------------|
    -------------|
    |------12--14------------|
    |--9---12--14--99-99999--|
    |--9---10--12--99-99999--|
    |--7-----------77-77777--|
    
    In the 3rd verse:
              |-----|                   |---|
              |-----|                   |---|
              |-----|                   |---|
              |--9--|                   |-9-|
              |--9--|                   |-9-|
              |--7--|                   |-7-|
    ..and he 

    Тональность:

    Нет текста!



    Назад
    Рекомендуем посмотреть другие песни исполнителя «Offspring»:

    • Комменты Fb ()
    • Комменты ВК



    Добавить в Избранное Браузера
    Сохранить здесь Очистить


    x

    0


    +
    -

    +
    -

    -

    Авторизация





    Зарегистрироваться

    M

    Дата и время

    • 14:40:57
       

    Социальные ссылки


    Наши приложения

    • Muzbank App Play Market
    • Muzbank Amazon App