MUZBANK



A Most Complete Bank Of Music Information

МУЗЫКАЛЬНО-ИНФОРМАЦИОННЫЙ БАНК

Поиск по сайту







    OOffspring • Session (аккорды и текст - chords & lyrics)


    287

    Print

    Видео «Session (Offspring)»

    Видео клипы к песне подбираются автоматически сайтом youtube. Возможны некоторые несоответствия клипов песне.

    ↑ Спрятать рекламу ↑



    Download


    bass
    E|-----------------------------------------------|
    B|-----------------------------------------------|
    G|-----------------------------------------------|
    D|--------------3--33--3-------------------------|
    A|--5--55--5--------------3--33--3---------------|
    E|--------------------------------------3--33--3-|
    vesre :
    bass
    E|--------------------------------------------------------|
    B|--------------------------------------------------------|
    G|--------------------------------------------------------| (1)
    D|------------------3--3--------3-------------------------|
    A|--5--5--------5------------------3--3--------3----------|
    E|---------------------------------------------------3--3-|
    
    E|-------------------------------------------------|
    B|-------------------------------------------------|
    G|-------------------------------------------------|
    D|-----------------3-3-3-3-3-33-33-----------------|  |
    A|-5-5-5-5-5-55-55-----------------3-3-3-3-3-33-33-|  |
    E|-------------------------------------------------|  |
                                                          |  (2)
    E|-----------------|                                  |
    B|-----------------|                                  |
    G|-----------------|                                  |
    D|-----------------|
    A|-----------------|
    E|-3-3-3-3-3-33-33-|
    
    chorus:    (3)
    
    E|-----------------------|
    B|-----------------------|
    G|-----------------------|
    D|----------------3----4-|   (повторить 3 раза)
    A|--0--00--00------------|
    E|-----------------------|
    
    E|-------------------------|
    B|-------------------------|
    G|-------------------------|
    D|-------------------------|
    A|--3--33--33--------------|
    E|---------------3--33--33-|
    
    маленький проигрыш:
    
    E|-------------|
    B|-------------|
    G|-------------| (повторить 4 раза)    (4)
    D|-------------|
    A|--5----53--4-|
    E|-------------|
    
    проигрыш (aaaaAAAA!!!...)    (5)
    
    E|-------------------------------------------|
    B|-------------------------------------------|
    G|-------------------------------------------|
    D|------------------------3--33--33----------|(повторить 3 раза)
    A|--5--55--55----3----3---------------3----3-|
    E|-------------------------------------------|
    
    E|--------------|
    B|--------------|
    G|--------------|
    D|--------------|
    A|--1----3----5-|
    E|--------------|
    
    VERSE 1:
    (1)
    I don?t know when it got this way
    I don?t know how long she?s gonna stay
    (1)
    Every week it?s the same in her room That?s why I came
    (2)
    Here I go, I go again Our rendezvous never seem to end
    (2)
    I know where I?ll be, I?ll make this confession
    Back in her bed for another goddamn session
    
    CHORUS:
    (3)
    Session!  I?ll never learn. Session! God knows I try.
    Session! Keep coming back for session And I don?t know why
    (3)
    Session! I?ll never learn. Session! I?ll never see.
    Session! Just tell me why these sessions got a hold on me
    
    маленький проигрыш:
    (4)
    
    VERSE 2:
    (1)
    Some might say it?s a fling For all
    I know it don?t mean a thing
    (1)
    Either way I can?t complain Ain?t no strings Guess
    I got it made
    (2)
    Here I go, I go again Our rendezvous never seem to end
    (2)
    I know where I?ll be I?ll make this confession
    Back in her bed for another goddamn session
    
    CHORUS:
    (3)
    Session!  I?ll never learn. Session! God knows I try.
    Session! Keep coming back for session And I don?t know why
    (3)
    Session! I?ll never learn. Session! I?ll never see.
    Session! Just tell me why these sessions got a hold on me
    
    маленький проигрыш:
    (4)
    
    проигрыш (aaaaAAAA!!!...)
    (5) (Декстер там орёт что-то...)
    
    FINAL:
    
    (2)
    Here I go, I go again Our rendezvous never seem to end
    (2)
    I know where I?ll be, I?ll make this confession
    Back in her bed for another goddamn session
    
    CHORUS:
    (3)
    Session!  I?ll never learn. Session! God knows I try.
    Session! Keep coming back for session And I don?t know why
    (3)
    Session! I?ll never learn. Session! I?ll never see.
    Session! Just tell me why these sessions got a hold on me
    
    маленький проигрыш:
    (4)
    

    Тональность:

    Нет текста!



    Назад
    Рекомендуем посмотреть другие песни исполнителя «Offspring»:

    • Комментарии Facebook ()
    • Комментарии ВКонтакте



    Добавить в Избранное Браузера
    Сохранить здесь Очистить


    x

    0


    +
    -

    +
    -

    -

    Авторизация





    Зарегистрироваться

    M

    Дата и время

    • 23:16:43
       

    Социальные ссылки


    Наши приложения

    • Muzbank App Play Market
    • Muzbank Amazon App