MUZBANK



A Most Complete Bank Of Music Information

МУЗЫКАЛЬНО-ИНФОРМАЦИОННЫЙ БАНК

Поиск по сайту







    OOne Dollar Short • Tims Brother (аккорды и текст - chords & lyrics)


    266

    Print

    Видео «Tims Brother (One Dollar Short)»

    Видео клипы к песне подбираются автоматически сайтом youtube. Возможны некоторые несоответствия клипов песне.

    ↑ Спрятать рекламу ↑



    Download


     
    
    
    Artist: one dollar short
    Song: tims brother
    Tabbed by: tim bryant
    Email: theimmoralmonkey@hotmail.com
    
    GUITAR:
    
    INTRO (guitar 1):
    e----------------------------T|-------------------|------------------------|
    B----------------------------I|-------------------|------------------------|
    G--7/9-9-9-x-x--7/9-9-9-x-x--M|--5-5-4-4-5-5-3-3--|--12-12-12-12-12-12-12--|
    D----------------------------E|-------------------|------------------------|
    A--5/7-7-7-x-x--5/7-7-7-x-x--S|--3-3-2-2-3-3-2-2--|--10-10-10-10-10-10-10--|
    E----------------------------2|-------------------|------------------------|
    
    e----------------|
    B----------------|
    G--13-13--13-13--|
    D----------------|
    A--11-11--11-11--|
    E----------------| x2
    
    INTRO (guitar 2):
    e-----------------------------------------------------------------------------|
    B-----------------------------------------------------------------------------|
    G-----------------------------------------------------------------------------|
    D--7-7-7-7-7-7-7-7-7-7-7-7--2-2-2-2-2-2-2-2-2-2-2-2--3-3-3-3-3-3-3-3-3-3-3-3--|
    A--7-7-7-7-7-7-7-7-7-7-7-7--2-2-2-2-2-2-2-2-2-2-2-2--3-3-3-3-3-3-3-3-3-3-3-3--|
    E--5-5-5-5-5-5-5-5-5-5-5-5--0-0-0-0-0-0-0-0-0-0-0-0--1-1-1-1-1-1-1-1-1-1-1-1--|
    
    e-------------------------|
    B-------------------------|
    G-------------------------|
    D--5-5-5-5-5-5--6-6--6-6--|
    A--5-5-5-5-5-5--6-6--6-6--|
    E--3-3-3-3-3-3--4-4--4-4--|
    
    PRE-VERSE:
    e------------------------------------------------------------------|
    B------------------------------------------------------------------|
    G------------------------------------------------------------------|
    D------------------------------------------------------------------|
    A--12-12-12-14-15--12-12-12-14-15--12-12-12-14-15--12-12-12-15-14--|
    E------------------------------------------------------------------|
    
    e-------------------------------------------------------------------------|
    B-------------------------------------------------------------------------|
    G---------------------------------------------------------------------14--|
    D-------------------------------------------------------------------------|
    A-12-12-12-14-15--12-12-12-14-15--11-11-11-11-11-11--12-12--15-15-11--12--|
    E-------------------------------------------------------------------------|x2
    
    PRE-VERSE (guitar 2): Come in after first guitar has played it once.
    e-----------------------------------------------------------------------------|
    B-----------------------------------------------------------------------------|
    G-----------------------------------------------------------------------------|
    D--7-7-7-7-7-7-7-7-7-7-7-7--2-2-2-2-2-2-2-2-2-2-2-2--3-3-3-3-3-3-3-3-3-3-3-3--|
    A--7-7-7-7-7-7-7-7-7-7-7-7--2-2-2-2-2-2-2-2-2-2-2-2--3-3-3-3-3-3-3-3-3-3-3-3--|
    E--5-5-5-5-5-5-5-5-5-5-5-5--0-0-0-0-0-0-0-0-0-0-0-0--1-1-1-1-1-1-1-1-1-1-1-1--|
    
    e--------------------------------|
    B--------------------------------|
    G--------------------------------|
    D--5-5-5-5-5-5--x-x--10--x-x--5--|
    A--5-5-5-5-5-5--x-x--10--x-x--5--|
    E--3-3-3-3-3-3--x-x--8---x-x--3--|
    
    VERSE (guitar 1):
    e--------------------------------------|-----------------------|
    B--------------------------------------|-----------------------|
    G--------------------------------------|-----7/9-7-5-----------|
    D--------------------------------------|-----------------------|
    A--------------------------------------|-----5/7-5-3-----------|
    E--------------------------------------|-----------------------|
    
    VERSE (guitar 2):
    e--------------------------------------|-----------------------|
    B--------------------------------------|-----------------------|
    G--------5-----------------------------|-----------5-----------|
    D--7--5--5--2--3--5-5-5-5-5-5-5-5-5-5--|--7--5-----5--2--3--5--|
    A--7--5--3--2--3--5-5-5-5-5-5-5-5-5-5--|--7--5-----3--2--3--5--|
    E--5--3-----0--1--3-3-3-3-3-3-3-3-3-3--|--5--3--------0--1--3--|
    
    
    CHORUS (guitar 1):
    e----------------------------|-------------------|
    B----------------------------|-------------------|
    G--7/9-9-9-x-x--7/9-9-9-x-x--|--5-5-x-x-5-5-x-x--|
    D----------------------------|-------------------|
    A--5/7-7-7-x-x--5/7-7-7-x-x--|--3-3-x-x-3-3-x-x--|
    E----------------------------|-------------------|
    
    CHORUS (guitar 2):
    e----------------------------|-------------------|
    B----------------------------|-------------------|
    G----------------------------|-------------------|
    D--7--7--7--7--7--7--7--7----|--5-5-5-5-5-5-5-5--|
    A--7--7--7--7--7--7--7--7----|--5-5-5-5-5-5-5-5--|
    E--5--5--5--5--5--5--5--5----|--3-3-3-3-3-3-3-3--|
    
    e--------------------------------------------------------|
    B--------------------------------------------------------|
    G--------------------------------------------------------|
    D-7-7-7-7-7-7-7-7-7-7-7-7-------2-2-2-2-2-2-2-2-2-2-2-2--|
    A-7-7-7-7-7-7-7-7-7-7-7-7-------2-2-2-2-2-2-2-2-2-2-2-2--|
    E-5-5-5-5-5-5-5-5-5-5-5-5-------0-0-0-0-0-0-0-0-0-0-0-0--|
    
    e----------------------------|-----|
    B----------------------------|-----|
    G----------------------------|-----|
    D--3-3-3-3-3-3-3-3-3-3-3-3---|--5--|
    A--3-3-3-3-3-3-3-3-3-3-3-3---|--5--|
    E--1-1-1-1-1-1-1-1-1-1-1-1---|--3--|
    
    e----------------------------|-----|
    B----------------------------|-----|
    G--7/9-9-9-x-x--7/9-9-9-x-x--|--5--|
    D----------------------------|-----|
    A--5/7-7-7-x-x--5/7-7-7-x-x--|--3--|
    E----------------------------|-----|
    
    PRE-VERSE: x1
    
    VERSE: Same.
    
    CHORUS: x2
    
    INTRO: x2
    
    That 

    Тональность:

    Нет текста!



    Назад
    Рекомендуем посмотреть другие песни исполнителя «One Dollar Short»:

    • Комментарии Facebook ()
    • Комментарии ВКонтакте



    Добавить в Избранное Браузера
    Сохранить здесь Очистить


    x

    0


    +
    -

    +
    -

    -

    Авторизация





    Зарегистрироваться

    M

    Дата и время

    • 05:04:03
       

    Социальные ссылки


    Наши приложения

    • Muzbank App Play Market
    • Muzbank Amazon App