MUZBANK



A Most Complete Bank Of Music Information

МУЗЫКАЛЬНО-ИНФОРМАЦИОННЫЙ БАНК

Поиск по сайту







    OOne Minute Silence • Available In All Colors (аккорды и текст - chords & lyrics)


    227

    Print

    Видео «Available In All Colors (One Minute Silence)»

    Видео клипы к песне подбираются автоматически сайтом youtube. Возможны некоторые несоответствия клипов песне.

    ↑ Спрятать рекламу ↑



    Download


     
    
    
    AVAILABLE IN ALL COLORS - One Minute Silence
    
                  By:Eric Koch                 (eye_live_@hotmail.com)
    
    played with a 6 string guitar with very heavy distortion and a metal pick
    
    Intro:
    e|------------------------------------------------|
    B|------------------------------------------------|
    G|------------------------------------------------|
    D|------------------------------------------------|
    A|------1----------1----------1----------1--------|
    E|-0-2-0------0-2-0------0-2-0------0-2-0-0-2-0-3-|
    
    Verse:
    e|----------------|
    B|----------------|
    G|----------------|
    D|-0-x-x-3-x-x-x-x|
    A|-0-4-0-1-4-5-x-x|
    E|-0-2-0-x-2-3-x-x|
    
    Chorus:
    e|-----Im HAving Trouble----------------|
    B|--------With The Chorus---------------|
    G|-----------So If Anybody Knows--------|
    D|----------please email me-------------|
    A|--------------------------------------|
    E|--------------------------------------|
    
    Outro:
    e|---------------------------------------------------------------------------|
    B|---------------------------------------------------------------------------|
    G|---------------------------------------------------------------------------|
    D|---------------------------------------------------------------------------|
    A|-4-5-7---------------------------------------------------------------------|
    E|-2-3-5---------------            ------------------------------------------|
    
    if u have any questions please email me and if u have the chorus please emai me 
    as well or email if u jsut want to piss me off eye_live_@hotmail.com
     

    Тональность:

    Нет текста!



    Назад
    Рекомендуем посмотреть другие песни исполнителя «One Minute Silence»:

    • Комментарии Facebook ()
    • Комментарии ВКонтакте



    Добавить в Избранное Браузера
    Сохранить здесь Очистить


    x

    0


    +
    -

    +
    -

    -

    Авторизация





    Зарегистрироваться

    M

    Дата и время

    • 09:47:05
       

    Социальные ссылки


    Наши приложения

    • Muzbank App Play Market
    • Muzbank Amazon App