MUZBANK



A Most Complete Bank Of Music Information

МУЗЫКАЛЬНО-ИНФОРМАЦИОННЫЙ БАНК

Поиск по сайту







    OOne Minute Silence • Remain Calm (аккорды и текст - chords & lyrics)


    335

    Print

    Видео «Remain Calm (One Minute Silence)»

    Видео клипы к песне подбираются автоматически сайтом youtube. Возможны некоторые несоответствия клипов песне.

    ↑ Спрятать рекламу ↑



    Download


     
    
    
    Artist-One Minute Silence
    Song-Remain Calm
    Album-Available In All Colours
                                    David=sdgrlowend@aol.com
    Drop D        H=hammer on
                    INTRO
    G|----------------------------------------|
    D|----------------------------------------|
    A|----------------------------------------|
    D|-0h1-1--0h1-1--0h1----0h1-1--0h1-1--0h1-|
    
                    VERSE
    G|----------------------------------------|
    D|----------------------------------------|
    A|----------------------------------------|
    D|-0-3-2-0--2--0-3--0-2-0----0-3----------| 
    
                    CHORUS
    G|----------------------------------------|
    D|----------------------------------------|
    A|---------3h5---6---6-6---6-5------------|
    D|-0--0-0------0---0----------------------|
    
    G|----------------------------------------|
    D|----------------------------------------|
    A|---------3h5---6---6-6---6-5------------|
    D|-0--0-0------0---0----------------------|
    
                    ENDING
    G|----------------------------------------|
    D|----------------------------------------|
    A|-----5------6---------------------------|
    D|-0h7----0h7----0h6----------------------|
     

    Тональность:

    Нет текста!



    Назад
    Рекомендуем посмотреть другие песни исполнителя «One Minute Silence»:

    • Комментарии Facebook ()
    • Комментарии ВКонтакте



    Добавить в Избранное Браузера
    Сохранить здесь Очистить


    x

    0


    +
    -

    +
    -

    -

    Авторизация





    Зарегистрироваться

    M

    Дата и время

    • 11:00:30
       

    Социальные ссылки


    Наши приложения

    • Muzbank App Play Market
    • Muzbank Amazon App